ISO-10303-21;
HEADER;
FILE_DESCRIPTION (( 'STEP AP203' ),
    '1' );
FILE_NAME ('SPS.AT40.03.STEP',
    '2014-05-20T05:47:18',
    ( 'USER' ),
    ( 'Microsoft' ),
    'SwSTEP 2.0',
    'SolidWorks 2012',
    '' );
FILE_SCHEMA (( 'CONFIG_CONTROL_DESIGN' ));
ENDSEC;

DATA;
#1 = APPROVAL_ROLE ( '' ) ;
#2 = APPROVAL_STATUS ( 'not_yet_approved' ) ;
#3 = DATE_TIME_ROLE ( 'classification_date' ) ;
#4 = DIRECTION ( 'NONE',  ( 0.0000000000000000000, 0.0000000000000000000, 1.000000000000000000 ) ) ;
#5 = PERSON_AND_ORGANIZATION_ROLE ( 'classification_officer' ) ;
#6 = DIRECTION ( 'NONE',  ( 0.0000000000000000000, 0.0000000000000000000, 1.000000000000000000 ) ) ;
#7 = SECURITY_CLASSIFICATION_LEVEL ( 'unclassified' ) ;
#8 = CARTESIAN_POINT ( 'NONE',  ( 0.0000000000000000000, 0.0000000000000000000, 0.0000000000000000000 ) ) ;
#9 = DIRECTION ( 'NONE',  ( -0.0000000000000000000, -0.0000000000000000000, -1.000000000000000000 ) ) ;
#10 = CARTESIAN_POINT ( 'NONE',  ( -20.00000000000000000, 0.0000000000000000000, 1000.000000000000000 ) ) ;
#11 = CARTESIAN_POINT ( 'NONE',  ( 0.0000000000000000000, 0.0000000000000000000, 1000.000000000000000 ) ) ;
#12 = PERSON_AND_ORGANIZATION_ROLE ( 'creator' ) ;
#13 = PERSON_AND_ORGANIZATION_ROLE ( 'design_supplier' ) ;
#14 = APPROVAL_ROLE ( '' ) ;
#15 = DATE_TIME_ROLE ( 'creation_date' ) ;
#16 = PERSON_AND_ORGANIZATION_ROLE ( 'creator' ) ;
#17 = APPROVAL_STATUS ( 'not_yet_approved' ) ;
#18 = APPROVAL_STATUS ( 'not_yet_approved' ) ;
#19 = APPROVAL_ROLE ( '' ) ;
#20 = APPLICATION_PROTOCOL_DEFINITION ( 'international standard', 'config_control_design', 1994, #23 ) ;
#21 = PERSON_AND_ORGANIZATION_ROLE ( 'design_owner' ) ;
#22 = MECHANICAL_CONTEXT ( 'NONE', #25, 'mechanical' ) ;
#23 = APPLICATION_CONTEXT ( 'configuration controlled 3d designs of mechanical parts and assemblies' ) ;
#24 = DIRECTION ( 'NONE',  ( 0.0000000000000000000, 0.0000000000000000000, 1.000000000000000000 ) ) ;
#25 = APPLICATION_CONTEXT ( 'configuration controlled 3d designs of mechanical parts and assemblies' ) ;
#26 = APPLICATION_PROTOCOL_DEFINITION ( 'international standard', 'config_control_design', 1994, #25 ) ;
#27 = CARTESIAN_POINT ( 'NONE',  ( 0.0000000000000000000, 0.0000000000000000000, 0.0000000000000000000 ) ) ;
#28 =( NAMED_UNIT ( * ) PLANE_ANGLE_UNIT ( ) SI_UNIT ( $, .RADIAN. ) );
#29 = DIRECTION ( 'NONE',  ( -0.0000000000000000000, -0.0000000000000000000, -1.000000000000000000 ) ) ;
#30 =( LENGTH_UNIT ( ) NAMED_UNIT ( * ) SI_UNIT ( .MILLI., .METRE. ) );
#31 = CARTESIAN_POINT ( 'NONE',  ( 0.0000000000000000000, 0.0000000000000000000, 1000.000000000000000 ) ) ;
#32 =( NAMED_UNIT ( * ) SI_UNIT ( $, .STERADIAN. ) SOLID_ANGLE_UNIT ( ) );
#33 = DIRECTION ( 'NONE',  ( 1.000000000000000000, 0.0000000000000000000, 0.0000000000000000000 ) ) ;
#34 = CARTESIAN_POINT ( 'NONE',  ( 17.00000000000000000, 2.081899558550500300E-015, 1000.000000000000000 ) ) ;
#35 = DIRECTION ( 'NONE',  ( -1.000000000000000000, 0.0000000000000000000, 0.0000000000000000000 ) ) ;
#36 = DIRECTION ( 'NONE',  ( -0.0000000000000000000, -0.0000000000000000000, -1.000000000000000000 ) ) ;
#37 = DIRECTION ( 'NONE',  ( -0.0000000000000000000, -0.0000000000000000000, -1.000000000000000000 ) ) ;
#38 = DIRECTION ( 'NONE',  ( -0.0000000000000000000, -0.0000000000000000000, -1.000000000000000000 ) ) ;
#39 = CARTESIAN_POINT ( 'NONE',  ( 0.0000000000000000000, 0.0000000000000000000, 1000.000000000000000 ) ) ;
#40 = DIRECTION ( 'NONE',  ( 1.000000000000000000, 0.0000000000000000000, 0.0000000000000000000 ) ) ;
#41 = CARTESIAN_POINT ( 'NONE',  ( 0.0000000000000000000, 0.0000000000000000000, 1000.000000000000000 ) ) ;
#42 = DIRECTION ( 'NONE',  ( -0.0000000000000000000, -0.0000000000000000000, -1.000000000000000000 ) ) ;
#43 = CARTESIAN_POINT ( 'NONE',  ( -17.00000000000000000, 0.0000000000000000000, 1000.000000000000000 ) ) ;
#44 = CARTESIAN_POINT ( 'NONE',  ( 0.0000000000000000000, 0.0000000000000000000, 1000.000000000000000 ) ) ;
#45 = DIRECTION ( 'NONE',  ( -0.0000000000000000000, -0.0000000000000000000, -1.000000000000000000 ) ) ;
#46 = DIRECTION ( 'NONE',  ( 1.000000000000000000, 0.0000000000000000000, 0.0000000000000000000 ) ) ;
#47 = DIRECTION ( 'NONE',  ( 1.000000000000000000, 0.0000000000000000000, -0.0000000000000000000 ) ) ;
#48 = DIRECTION ( 'NONE',  ( 0.0000000000000000000, 0.0000000000000000000, 1.000000000000000000 ) ) ;
#49 = DIRECTION ( 'NONE',  ( -1.000000000000000000, 0.0000000000000000000, 0.0000000000000000000 ) ) ;
#50 = PLANE ( 'NONE',  #110 ) ;
#51 = DIRECTION ( 'NONE',  ( -1.000000000000000000, 0.0000000000000000000, 0.0000000000000000000 ) ) ;
#52 = CARTESIAN_POINT ( 'NONE',  ( 0.0000000000000000000, 0.0000000000000000000, 1000.000000000000000 ) ) ;
#53 = DIRECTION ( 'NONE',  ( -0.0000000000000000000, -0.0000000000000000000, -1.000000000000000000 ) ) ;
#54 = DIRECTION ( 'NONE',  ( 1.000000000000000000, 0.0000000000000000000, -0.0000000000000000000 ) ) ;
#55 = DIRECTION ( 'NONE',  ( 0.0000000000000000000, 0.0000000000000000000, 1.000000000000000000 ) ) ;
#56 = DIRECTION ( 'NONE',  ( 1.000000000000000000, 0.0000000000000000000, 0.0000000000000000000 ) ) ;
#57 = CARTESIAN_POINT ( 'NONE',  ( 0.0000000000000000000, 0.0000000000000000000, 1000.000000000000000 ) ) ;
#58 = DIRECTION ( 'NONE',  ( -1.000000000000000000, 0.0000000000000000000, 0.0000000000000000000 ) ) ;
#59 = PLANE ( 'NONE',  #112 ) ;
#60 = CARTESIAN_POINT ( 'NONE',  ( 20.00000000000000000, 2.449293598294706500E-015, 1000.000000000000000 ) ) ;
#61 = CARTESIAN_POINT ( 'NONE',  ( -20.00000000000000000, 0.0000000000000000000, 1000.000000000000000 ) ) ;
#62 = CARTESIAN_POINT ( 'NONE',  ( 20.00000000000000000, 2.449293598294706500E-015, 0.0000000000000000000 ) ) ;
#63 = DIRECTION ( 'NONE',  ( 1.000000000000000000, 0.0000000000000000000, 0.0000000000000000000 ) ) ;
#64 = DIRECTION ( 'NONE',  ( 0.0000000000000000000, 0.0000000000000000000, 1.000000000000000000 ) ) ;
#65 = CARTESIAN_POINT ( 'NONE',  ( 0.0000000000000000000, 0.0000000000000000000, 0.0000000000000000000 ) ) ;
#66 = CARTESIAN_POINT ( 'NONE',  ( -17.00000000000000000, 0.0000000000000000000, 0.0000000000000000000 ) ) ;
#67 = CARTESIAN_POINT ( 'NONE',  ( 20.00000000000000000, 2.449293598294706500E-015, 1000.000000000000000 ) ) ;
#68 = CARTESIAN_POINT ( 'NONE',  ( 17.00000000000000000, 2.081899558550500300E-015, 1000.000000000000000 ) ) ;
#69 = DIRECTION ( 'NONE',  ( 1.000000000000000000, 0.0000000000000000000, 0.0000000000000000000 ) ) ;
#70 = DIRECTION ( 'NONE',  ( 0.0000000000000000000, 0.0000000000000000000, 1.000000000000000000 ) ) ;
#71 = CARTESIAN_POINT ( 'NONE',  ( 0.0000000000000000000, 0.0000000000000000000, 0.0000000000000000000 ) ) ;
#72 = CARTESIAN_POINT ( 'NONE',  ( -20.00000000000000000, 0.0000000000000000000, 0.0000000000000000000 ) ) ;
#73 = CARTESIAN_POINT ( 'NONE',  ( -17.00000000000000000, 0.0000000000000000000, 1000.000000000000000 ) ) ;
#74 = DIRECTION ( 'NONE',  ( 1.000000000000000000, 0.0000000000000000000, 0.0000000000000000000 ) ) ;
#75 = DIRECTION ( 'NONE',  ( 0.0000000000000000000, 0.0000000000000000000, 1.000000000000000000 ) ) ;
#76 = CARTESIAN_POINT ( 'NONE',  ( 0.0000000000000000000, 0.0000000000000000000, 1000.000000000000000 ) ) ;
#77 = CARTESIAN_POINT ( 'NONE',  ( 17.00000000000000000, 2.081899558550500300E-015, 0.0000000000000000000 ) ) ;
#78 = CARTESIAN_POINT ( 'NONE',  ( 0.0000000000000000000, 0.0000000000000000000, 0.0000000000000000000 ) ) ;
#79 = DIRECTION ( 'NONE',  ( 1.000000000000000000, 0.0000000000000000000, 0.0000000000000000000 ) ) ;
#80 = DIRECTION ( 'NONE',  ( 0.0000000000000000000, 0.0000000000000000000, 1.000000000000000000 ) ) ;
#81 = DIRECTION ( 'NONE',  ( 0.0000000000000000000, 0.0000000000000000000, 1.000000000000000000 ) ) ;
#82 = CARTESIAN_POINT ( 'NONE',  ( 0.0000000000000000000, 0.0000000000000000000, 1000.000000000000000 ) ) ;
#83 = DIRECTION ( 'NONE',  ( 1.000000000000000000, 0.0000000000000000000, 0.0000000000000000000 ) ) ;
#84 = DIRECTION ( 'NONE',  ( 0.0000000000000000000, 0.0000000000000000000, 1.000000000000000000 ) ) ;
#85 = CARTESIAN_POINT ( 'NONE',  ( 0.0000000000000000000, 0.0000000000000000000, 0.0000000000000000000 ) ) ;
#86 = DESIGN_CONTEXT ( 'detailed design', #23, 'design' ) ;
#87 = PRODUCT_DEFINITION_SHAPE ( 'NONE', 'NONE',  #104 ) ;
#88 = CC_DESIGN_SECURITY_CLASSIFICATION ( #94, ( #98 ) ) ;
#89 = PRODUCT_RELATED_PRODUCT_CATEGORY ( 'detail', '', ( #240 ) ) ;
#90 = CC_DESIGN_APPROVAL ( #91, ( #94 ) ) ;
#91 = APPROVAL ( #2, 'Î´Ö¸¶¨' ) ;
#92 = CC_DESIGN_PERSON_AND_ORGANIZATION_ASSIGNMENT ( #200, #5, ( #94 ) ) ;
#93 = CC_DESIGN_DATE_AND_TIME_ASSIGNMENT ( #229, #3, ( #94 ) ) ;
#94 = SECURITY_CLASSIFICATION ( '', '', #7 ) ;
#95 = CC_DESIGN_PERSON_AND_ORGANIZATION_ASSIGNMENT ( #207, #13, ( #98 ) ) ;
#96 = CC_DESIGN_PERSON_AND_ORGANIZATION_ASSIGNMENT ( #195, #12, ( #98 ) ) ;
#97 = CC_DESIGN_DATE_AND_TIME_ASSIGNMENT ( #136, #15, ( #104 ) ) ;
#98 = PRODUCT_DEFINITION_FORMATION_WITH_SPECIFIED_SOURCE ( 'ÈÎºÎ', '', #240, .NOT_KNOWN. ) ;
#99 = APPROVAL ( #17, 'Î´Ö¸¶¨' ) ;
#100 = CC_DESIGN_APPROVAL ( #99, ( #98 ) ) ;
#101 = CC_DESIGN_PERSON_AND_ORGANIZATION_ASSIGNMENT ( #173, #16, ( #104 ) ) ;
#102 = CC_DESIGN_APPROVAL ( #105, ( #104 ) ) ;
#103 = CC_DESIGN_PERSON_AND_ORGANIZATION_ASSIGNMENT ( #175, #21, ( #240 ) ) ;
#104 = PRODUCT_DEFINITION ( 'Î´Öª', '', #98, #86 ) ;
#105 = APPROVAL ( #18, 'Î´Ö¸¶¨' ) ;
#106 = AXIS2_PLACEMENT_3D ( 'NONE', #39, #38, #35 ) ;
#107 = AXIS2_PLACEMENT_3D ( 'NONE', #41, #42, #51 ) ;
#108 = AXIS2_PLACEMENT_3D ( 'NONE', #44, #45, #49 ) ;
#109 = AXIS2_PLACEMENT_3D ( 'NONE', #52, #53, #58 ) ;
#110 = AXIS2_PLACEMENT_3D ( 'NONE', #78, #48, #47 ) ;
#111 =( GEOMETRIC_REPRESENTATION_CONTEXT ( 3 ) GLOBAL_UNCERTAINTY_ASSIGNED_CONTEXT ( ( #249 ) ) GLOBAL_UNIT_ASSIGNED_CONTEXT ( ( #30, #28, #32 ) ) REPRESENTATION_CONTEXT ( 'NONE', 'WORKASPACE' ) );
#112 = AXIS2_PLACEMENT_3D ( 'NONE', #57, #55, #54 ) ;
#113 = AXIS2_PLACEMENT_3D ( 'NONE', #65, #64, #63 ) ;
#114 = AXIS2_PLACEMENT_3D ( 'NONE', #85, #84, #83 ) ;
#115 = AXIS2_PLACEMENT_3D ( 'NONE', #82, #80, #79 ) ;
#116 = AXIS2_PLACEMENT_3D ( 'NONE', #76, #75, #74 ) ;
#117 = AXIS2_PLACEMENT_3D ( 'NONE', #71, #70, #69 ) ;
#118 = AXIS2_PLACEMENT_3D ( 'NONE', #31, #4, #40 ) ;
#119 = AXIS2_PLACEMENT_3D ( 'NONE', #11, #81, #33 ) ;
#120 = EDGE_CURVE ( 'NONE', #150, #152, #204, .T. ) ;
#121 = EDGE_CURVE ( 'NONE', #152, #137, #140, .T. ) ;
#122 = EDGE_CURVE ( 'NONE', #150, #145, #202, .T. ) ;
#123 = EDGE_CURVE ( 'NONE', #145, #137, #205, .T. ) ;
#124 = EDGE_CURVE ( 'NONE', #151, #149, #210, .T. ) ;
#125 = EDGE_CURVE ( 'NONE', #151, #146, #208, .T. ) ;
#126 = EDGE_CURVE ( 'NONE', #146, #147, #211, .T. ) ;
#127 = EDGE_CURVE ( 'NONE', #149, #147, #216, .T. ) ;
#128 = EDGE_CURVE ( 'NONE', #149, #151, #223, .T. ) ;
#129 = EDGE_CURVE ( 'NONE', #145, #150, #222, .T. ) ;
#130 = EDGE_CURVE ( 'NONE', #147, #146, #226, .T. ) ;
#131 = EDGE_CURVE ( 'NONE', #137, #152, #228, .T. ) ;
#132 = AXIS2_PLACEMENT_3D ( 'NONE', #27, #24, #56 ) ;
#133 = AXIS2_PLACEMENT_3D ( 'NONE', #8, #6, #46 ) ;
#134 = EDGE_LOOP ( 'NONE', ( #163, #161 ) ) ;
#135 = EDGE_LOOP ( 'NONE', ( #157, #159, #189, #203 ) ) ;
#136 = DATE_AND_TIME ( #165, #167 ) ;
#137 = VERTEX_POINT ( 'NONE', #77 ) ;
#138 = EDGE_LOOP ( 'NONE', ( #199, #194 ) ) ;
#139 = EDGE_LOOP ( 'NONE', ( #154, #160, #155, #156 ) ) ;
#140 = CIRCLE ( 'NONE', #133, 17.00000000000000000 ) ;
#141 = EDGE_LOOP ( 'NONE', ( #188, #187, #237, #201 ) ) ;
#142 = CLOSED_SHELL ( 'NONE', ( #245, #244, #241, #243, #246, #242 ) ) ;
#143 = EDGE_LOOP ( 'NONE', ( #197, #198 ) ) ;
#144 = EDGE_LOOP ( 'NONE', ( #193, #190, #212, #186 ) ) ;
#145 = VERTEX_POINT ( 'NONE', #68 ) ;
#146 = VERTEX_POINT ( 'NONE', #62 ) ;
#147 = VERTEX_POINT ( 'NONE', #72 ) ;
#148 = FACE_BOUND ( 'NONE', #143, .T. ) ;
#149 = VERTEX_POINT ( 'NONE', #61 ) ;
#150 = VERTEX_POINT ( 'NONE', #73 ) ;
#151 = VERTEX_POINT ( 'NONE', #60 ) ;
#152 = VERTEX_POINT ( 'NONE', #66 ) ;
#153 = CALENDAR_DATE ( 2014, 20, 5 ) ;
#154 = ORIENTED_EDGE ( 'NONE', *, *, #125, .F. ) ;
#155 = ORIENTED_EDGE ( 'NONE', *, *, #127, .T. ) ;
#156 = ORIENTED_EDGE ( 'NONE', *, *, #130, .T. ) ;
#157 = ORIENTED_EDGE ( 'NONE', *, *, #123, .F. ) ;
#158 = COORDINATED_UNIVERSAL_TIME_OFFSET ( 8, 0, .AHEAD. ) ;
#159 = ORIENTED_EDGE ( 'NONE', *, *, #129, .T. ) ;
#160 = ORIENTED_EDGE ( 'NONE', *, *, #128, .F. ) ;
#161 = ORIENTED_EDGE ( 'NONE', *, *, #131, .T. ) ;
#162 = DATE_AND_TIME ( #153, #192 ) ;
#163 = ORIENTED_EDGE ( 'NONE', *, *, #121, .T. ) ;
#164 = APPROVAL_DATE_TIME ( #162, #99 ) ;
#165 = CALENDAR_DATE ( 2014, 20, 5 ) ;
#166 = EDGE_LOOP ( 'NONE', ( #191, #196 ) ) ;
#167 = LOCAL_TIME ( 13, 47, 18.00000000000000000, #168 ) ;
#168 = COORDINATED_UNIVERSAL_TIME_OFFSET ( 8, 0, .AHEAD. ) ;
#169 = LOCAL_TIME ( 13, 47, 18.00000000000000000, #178 ) ;
#170 = CALENDAR_DATE ( 2014, 20, 5 ) ;
#171 = DATE_AND_TIME ( #170, #169 ) ;
#172 = APPROVAL_DATE_TIME ( #171, #105 ) ;
#173 = PERSON_AND_ORGANIZATION ( #239, #174 ) ;
#174 = ORGANIZATION ( 'Î´Ö¸¶¨', 'Î´Ö¸¶¨', '' ) ;
#175 = PERSON_AND_ORGANIZATION ( #239, #174 ) ;
#176 = PERSON_AND_ORGANIZATION ( #239, #174 ) ;
#177 = APPROVAL_PERSON_ORGANIZATION ( #176, #105, #19 ) ;
#178 = COORDINATED_UNIVERSAL_TIME_OFFSET ( 8, 0, .AHEAD. ) ;
#179 = CYLINDRICAL_SURFACE ( 'NONE', #106, 20.00000000000000000 ) ;
#180 = CYLINDRICAL_SURFACE ( 'NONE', #107, 17.00000000000000000 ) ;
#181 = CYLINDRICAL_SURFACE ( 'NONE', #108, 20.00000000000000000 ) ;
#182 = SHAPE_DEFINITION_REPRESENTATION ( #87, #248 ) ;
#183 = FACE_OUTER_BOUND ( 'NONE', #141, .T. ) ;
#184 = FACE_BOUND ( 'NONE', #134, .T. ) ;
#185 = FACE_OUTER_BOUND ( 'NONE', #166, .T. ) ;
#186 = ORIENTED_EDGE ( 'NONE', *, *, #127, .F. ) ;
#187 = ORIENTED_EDGE ( 'NONE', *, *, #123, .T. ) ;
#188 = ORIENTED_EDGE ( 'NONE', *, *, #122, .T. ) ;
#189 = ORIENTED_EDGE ( 'NONE', *, *, #120, .T. ) ;
#190 = ORIENTED_EDGE ( 'NONE', *, *, #125, .T. ) ;
#191 = ORIENTED_EDGE ( 'NONE', *, *, #128, .T. ) ;
#192 = LOCAL_TIME ( 13, 47, 18.00000000000000000, #158 ) ;
#193 = ORIENTED_EDGE ( 'NONE', *, *, #124, .F. ) ;
#194 = ORIENTED_EDGE ( 'NONE', *, *, #126, .F. ) ;
#195 = PERSON_AND_ORGANIZATION ( #239, #174 ) ;
#196 = ORIENTED_EDGE ( 'NONE', *, *, #124, .T. ) ;
#197 = ORIENTED_EDGE ( 'NONE', *, *, #122, .F. ) ;
#198 = ORIENTED_EDGE ( 'NONE', *, *, #129, .F. ) ;
#199 = ORIENTED_EDGE ( 'NONE', *, *, #130, .F. ) ;
#200 = PERSON_AND_ORGANIZATION ( #239, #174 ) ;
#201 = ORIENTED_EDGE ( 'NONE', *, *, #120, .F. ) ;
#202 = CIRCLE ( 'NONE', #119, 17.00000000000000000 ) ;
#203 = ORIENTED_EDGE ( 'NONE', *, *, #131, .F. ) ;
#204 = LINE ( 'NONE', #43, #206 ) ;
#205 = LINE ( 'NONE', #34, #209 ) ;
#206 = VECTOR ( 'NONE', #9, 1000.000000000000000 ) ;
#207 = PERSON_AND_ORGANIZATION ( #239, #174 ) ;
#208 = LINE ( 'NONE', #67, #213 ) ;
#209 = VECTOR ( 'NONE', #36, 1000.000000000000000 ) ;
#210 = CIRCLE ( 'NONE', #118, 20.00000000000000000 ) ;
#211 = CIRCLE ( 'NONE', #114, 20.00000000000000000 ) ;
#212 = ORIENTED_EDGE ( 'NONE', *, *, #126, .T. ) ;
#213 = VECTOR ( 'NONE', #37, 1000.000000000000000 ) ;
#214 = APPROVAL_DATE_TIME ( #215, #91 ) ;
#215 = DATE_AND_TIME ( #217, #219 ) ;
#216 = LINE ( 'NONE', #10, #218 ) ;
#217 = CALENDAR_DATE ( 2014, 20, 5 ) ;
#218 = VECTOR ( 'NONE', #29, 1000.000000000000000 ) ;
#219 = LOCAL_TIME ( 13, 47, 18.00000000000000000, #221 ) ;
#220 = CYLINDRICAL_SURFACE ( 'NONE', #109, 17.00000000000000000 ) ;
#221 = COORDINATED_UNIVERSAL_TIME_OFFSET ( 8, 0, .AHEAD. ) ;
#222 = CIRCLE ( 'NONE', #116, 17.00000000000000000 ) ;
#223 = CIRCLE ( 'NONE', #115, 20.00000000000000000 ) ;
#224 = APPROVAL_PERSON_ORGANIZATION ( #227, #91, #1 ) ;
#225 = APPROVAL_PERSON_ORGANIZATION ( #238, #99, #14 ) ;
#226 = CIRCLE ( 'NONE', #117, 20.00000000000000000 ) ;
#227 = PERSON_AND_ORGANIZATION ( #239, #174 ) ;
#228 = CIRCLE ( 'NONE', #113, 17.00000000000000000 ) ;
#229 = DATE_AND_TIME ( #230, #232 ) ;
#230 = CALENDAR_DATE ( 2014, 20, 5 ) ;
#231 = FACE_OUTER_BOUND ( 'NONE', #135, .T. ) ;
#232 = LOCAL_TIME ( 13, 47, 18.00000000000000000, #234 ) ;
#233 = FACE_OUTER_BOUND ( 'NONE', #139, .T. ) ;
#234 = COORDINATED_UNIVERSAL_TIME_OFFSET ( 8, 0, .AHEAD. ) ;
#235 = FACE_OUTER_BOUND ( 'NONE', #138, .T. ) ;
#236 = FACE_OUTER_BOUND ( 'NONE', #144, .T. ) ;
#237 = ORIENTED_EDGE ( 'NONE', *, *, #121, .F. ) ;
#238 = PERSON_AND_ORGANIZATION ( #239, #174 ) ;
#239 = PERSON ( 'Î´Ö¸¶¨', 'Î´Ö¸¶¨', 'Î´Ö¸¶¨', ('Î´Ö¸¶¨'), ('Î´Ö¸¶¨'), ('Î´Ö¸¶¨') ) ;
#240 = PRODUCT ( 'SPS.AT40.03', 'SPS.AT40.03', '', ( #22 ) ) ;
#241 = ADVANCED_FACE ( 'NONE', ( #185, #148 ), #59, .T. ) ;
#242 = ADVANCED_FACE ( 'NONE', ( #231 ), #220, .F. ) ;
#243 = ADVANCED_FACE ( 'NONE', ( #235, #184 ), #50, .F. ) ;
#244 = ADVANCED_FACE ( 'NONE', ( #236 ), #181, .T. ) ;
#245 = ADVANCED_FACE ( 'NONE', ( #183 ), #180, .F. ) ;
#246 = ADVANCED_FACE ( 'NONE', ( #233 ), #179, .T. ) ;
#247 = MANIFOLD_SOLID_BREP ( 'À­Éì1', #142 ) ;
#248 = ADVANCED_BREP_SHAPE_REPRESENTATION ( 'SPS.AT40.03', ( #247, #132 ), #111 ) ;
#249 = UNCERTAINTY_MEASURE_WITH_UNIT (LENGTH_MEASURE( 1.000000000000000100E-005 ), #30, 'distance_accuracy_value', 'NONE');
ENDSEC;
END-ISO-10303-21;
