ISO-10303-21;
HEADER;
FILE_DESCRIPTION (( 'STEP AP214' ),
    '1' );
FILE_NAME ('3.04.p.sp6.STEP',
    '2025-06-14T18:50:36',
    ( '' ),
    ( '' ),
    'SwSTEP 2.0',
    'SolidWorks 2023',
    '' );
FILE_SCHEMA (( 'AUTOMOTIVE_DESIGN' ));
ENDSEC;

DATA;
#1 = ORIENTED_EDGE ( 'NONE', *, *, #131, .F. ) ;
#2 = ORIENTED_EDGE ( 'NONE', *, *, #131, .T. ) ;
#3 = EDGE_LOOP ( 'NONE', ( #168, #83, #243, #124 ) ) ;
#4 = CARTESIAN_POINT ( 'NONE',  ( 11.99999999999999822, 9.500000000000000000, 4.000000000000000000 ) ) ;
#5 = AXIS2_PLACEMENT_3D ( 'NONE', #222, #14, #73 ) ;
#6 = DIRECTION ( 'NONE',  ( -0.000000000000000000, 1.000000000000000000, 0.000000000000000000 ) ) ;
#7 = EDGE_CURVE ( 'NONE', #59, #169, #26, .T. ) ;
#8 = CARTESIAN_POINT ( 'NONE',  ( 19.00000000000000000, 2.242407919506722580E-15, 0.000000000000000000 ) ) ;
#9 = DIRECTION ( 'NONE',  ( 0.000000000000000000, 0.000000000000000000, -1.000000000000000000 ) ) ;
#10 = PLANE ( 'NONE',  #19 ) ;
#11 = ADVANCED_FACE ( 'NONE', ( #109, #223 ), #82, .T. ) ;
#12 = DIRECTION ( 'NONE',  ( -1.000000000000000000, 0.000000000000000000, 0.000000000000000000 ) ) ;
#13 = VERTEX_POINT ( 'NONE', #208 ) ;
#14 = DIRECTION ( 'NONE',  ( 0.000000000000000000, 0.000000000000000000, -1.000000000000000000 ) ) ;
#15 = DIRECTION ( 'NONE',  ( 1.000000000000000000, 0.000000000000000000, 0.000000000000000000 ) ) ;
#16 = CYLINDRICAL_SURFACE ( 'NONE', #5, 2.500000000000000444 ) ;
#17 = APPLICATION_PROTOCOL_DEFINITION ( 'draft international standard', 'automotive_design', 1998, #118 ) ;
#18 = PRESENTATION_LAYER_ASSIGNMENT (  '', '', ( #228 ) ) ;
#19 = AXIS2_PLACEMENT_3D ( 'NONE', #249, #6, #247 ) ;
#20 = DIRECTION ( 'NONE',  ( -1.000000000000000000, 0.000000000000000000, 0.000000000000000000 ) ) ;
#21 = ORIENTED_EDGE ( 'NONE', *, *, #233, .T. ) ;
#22 = ORIENTED_EDGE ( 'NONE', *, *, #134, .T. ) ;
#23 = AXIS2_PLACEMENT_3D ( 'NONE', #37, #125, #99 ) ;
#24 = ADVANCED_FACE ( 'NONE', ( #107 ), #186, .T. ) ;
#25 = ORIENTED_EDGE ( 'NONE', *, *, #56, .F. ) ;
#26 = LINE ( 'NONE', #146, #87 ) ;
#27 = CARTESIAN_POINT ( 'NONE',  ( 9.499999999999998224, 9.500000000000000000, 4.000000000000000000 ) ) ;
#28 = FILL_AREA_STYLE ('',( #46 ) ) ;
#29 = DIRECTION ( 'NONE',  ( -1.000000000000000000, 0.000000000000000000, 0.000000000000000000 ) ) ;
#30 = LINE ( 'NONE', #4, #193 ) ;
#31 = AXIS2_PLACEMENT_3D ( 'NONE', #258, #55, #15 ) ;
#32 = DIRECTION ( 'NONE',  ( -0.000000000000000000, 0.000000000000000000, -1.000000000000000000 ) ) ;
#33 = DIRECTION ( 'NONE',  ( 1.000000000000000000, 0.000000000000000000, 0.000000000000000000 ) ) ;
#34 = ADVANCED_FACE ( 'NONE', ( #183 ), #10, .T. ) ;
#35 = DIRECTION ( 'NONE',  ( -3.143179693160867579E-97, 1.000000000000000000, 0.000000000000000000 ) ) ;
#36 =( NAMED_UNIT ( * ) SI_UNIT ( $, .STERADIAN. ) SOLID_ANGLE_UNIT ( ) );
#37 = CARTESIAN_POINT ( 'NONE',  ( 0.000000000000000000, 0.000000000000000000, 0.000000000000000000 ) ) ;
#38 = CARTESIAN_POINT ( 'NONE',  ( -4.130242573507722800E-112, 19.00000000000000000, 4.000000000000000000 ) ) ;
#39 = VECTOR ( 'NONE', #144, 1000.000000000000000 ) ;
#40 = DIRECTION ( 'NONE',  ( 3.143179693160867579E-97, -1.000000000000000000, 0.000000000000000000 ) ) ;
#41 = ORIENTED_EDGE ( 'NONE', *, *, #176, .T. ) ;
#42 = EDGE_LOOP ( 'NONE', ( #150, #60 ) ) ;
#43 = DIRECTION ( 'NONE',  ( 0.000000000000000000, 0.000000000000000000, -1.000000000000000000 ) ) ;
#44 = ORIENTED_EDGE ( 'NONE', *, *, #7, .F. ) ;
#45 = PLANE ( 'NONE',  #217 ) ;
#46 = FILL_AREA_STYLE_COLOUR ( '', #53 ) ;
#47 =( NAMED_UNIT ( * ) SI_UNIT ( $, .STERADIAN. ) SOLID_ANGLE_UNIT ( ) );
#48 = CIRCLE ( 'NONE', #31, 2.500000000000000444 ) ;
#49 = CARTESIAN_POINT ( 'NONE',  ( -4.130242573507722800E-112, 19.00000000000000000, 0.000000000000000000 ) ) ;
#50 = EDGE_CURVE ( 'NONE', #184, #143, #30, .T. ) ;
#51 = FACE_BOUND ( 'NONE', #42, .T. ) ;
#52 = EDGE_LOOP ( 'NONE', ( #80, #21, #198, #220 ) ) ;
#53 = COLOUR_RGB ( '',0.8274509803921568096, 0.8392156862745098200, 0.8274509803921568096 ) ;
#54 =( LENGTH_UNIT ( ) NAMED_UNIT ( * ) SI_UNIT ( .MILLI., .METRE. ) );
#55 = DIRECTION ( 'NONE',  ( -0.000000000000000000, 0.000000000000000000, -1.000000000000000000 ) ) ;
#56 = EDGE_CURVE ( 'NONE', #163, #169, #189, .T. ) ;
#57 = ORIENTED_EDGE ( 'NONE', *, *, #160, .F. ) ;
#58 = ORIENTED_EDGE ( 'NONE', *, *, #215, .F. ) ;
#59 = VERTEX_POINT ( 'NONE', #86 ) ;
#60 = ORIENTED_EDGE ( 'NONE', *, *, #157, .T. ) ;
#61 = EDGE_LOOP ( 'NONE', ( #241, #130, #2, #121 ) ) ;
#62 = VECTOR ( 'NONE', #92, 1000.000000000000000 ) ;
#63 = DIRECTION ( 'NONE',  ( 0.000000000000000000, 0.000000000000000000, -1.000000000000000000 ) ) ;
#64 = AXIS2_PLACEMENT_3D ( 'NONE', #240, #167, #20 ) ;
#65 = DIRECTION ( 'NONE',  ( 0.000000000000000000, 0.000000000000000000, -1.000000000000000000 ) ) ;
#66 = DIRECTION ( 'NONE',  ( 0.000000000000000000, 0.000000000000000000, -1.000000000000000000 ) ) ;
#67 = EDGE_CURVE ( 'NONE', #225, #151, #253, .T. ) ;
#68 = CYLINDRICAL_SURFACE ( 'NONE', #181, 2.500000000000000444 ) ;
#69 = DIRECTION ( 'NONE',  ( 0.000000000000000000, 0.000000000000000000, -1.000000000000000000 ) ) ;
#70 = FACE_OUTER_BOUND ( 'NONE', #84, .T. ) ;
#71 = VECTOR ( 'NONE', #180, 1000.000000000000000 ) ;
#72 = LINE ( 'NONE', #94, #71 ) ;
#73 = DIRECTION ( 'NONE',  ( -1.000000000000000000, 0.000000000000000000, 0.000000000000000000 ) ) ;
#74 = DIRECTION ( 'NONE',  ( 1.000000000000000000, 1.530757942277971265E-17, 0.000000000000000000 ) ) ;
#75 = EDGE_CURVE ( 'NONE', #165, #151, #190, .T. ) ;
#76 = DIRECTION ( 'NONE',  ( -0.000000000000000000, 0.000000000000000000, -1.000000000000000000 ) ) ;
#77 = ORIENTED_EDGE ( 'NONE', *, *, #50, .T. ) ;
#78 = VECTOR ( 'NONE', #69, 1000.000000000000000 ) ;
#79 = CARTESIAN_POINT ( 'NONE',  ( 5.972041417005645802E-96, 1.951563910473907981E-15, 4.000000000000000000 ) ) ;
#80 = ORIENTED_EDGE ( 'NONE', *, *, #75, .T. ) ;
#81 = EDGE_CURVE ( 'NONE', #59, #132, #114, .T. ) ;
#82 = PLANE ( 'NONE',  #64 ) ;
#83 = ORIENTED_EDGE ( 'NONE', *, *, #67, .F. ) ;
#84 = EDGE_LOOP ( 'NONE', ( #226, #77, #185, #1 ) ) ;
#85 = SURFACE_STYLE_USAGE ( .BOTH. , #88 ) ;
#86 = CARTESIAN_POINT ( 'NONE',  ( 19.00000000000000000, 19.00000000000000000, 4.000000000000000000 ) ) ;
#87 = VECTOR ( 'NONE', #43, 1000.000000000000000 ) ;
#88 = SURFACE_SIDE_STYLE ('',( #234 ) ) ;
#89 = ADVANCED_FACE ( 'NONE', ( #210 ), #45, .T. ) ;
#90 = CARTESIAN_POINT ( 'NONE',  ( -4.130242573507722800E-112, 19.00000000000000000, 4.000000000000000000 ) ) ;
#91 = DIRECTION ( 'NONE',  ( 1.000000000000000000, 0.000000000000000000, 0.000000000000000000 ) ) ;
#92 = DIRECTION ( 'NONE',  ( -1.000000000000000000, -1.530757942277971265E-17, 0.000000000000000000 ) ) ;
#93 = PRODUCT_DEFINITION_FORMATION_WITH_SPECIFIED_SOURCE ( 'ANY', '', #229, .NOT_KNOWN. ) ;
#94 = CARTESIAN_POINT ( 'NONE',  ( 5.972041417005645802E-96, 1.951563910473907981E-15, 0.000000000000000000 ) ) ;
#95 = CARTESIAN_POINT ( 'NONE',  ( 0.000000000000000000, 0.000000000000000000, 4.000000000000000000 ) ) ;
#96 = PRODUCT_DEFINITION ( 'UNKNOWN', '', #93, #149 ) ;
#97 = DIRECTION ( 'NONE',  ( 1.530757942277971265E-17, -1.000000000000000000, 0.000000000000000000 ) ) ;
#98 = EDGE_LOOP ( 'NONE', ( #106, #261 ) ) ;
#99 = DIRECTION ( 'NONE',  ( 1.000000000000000000, 0.000000000000000000, 0.000000000000000000 ) ) ;
#100 = CIRCLE ( 'NONE', #164, 2.500000000000000444 ) ;
#101 = EDGE_CURVE ( 'NONE', #13, #184, #100, .T. ) ;
#102 = DIRECTION ( 'NONE',  ( -1.000000000000000000, -3.143179693160867579E-97, 0.000000000000000000 ) ) ;
#103 = ORIENTED_EDGE ( 'NONE', *, *, #122, .F. ) ;
#104 = UNCERTAINTY_MEASURE_WITH_UNIT (LENGTH_MEASURE( 1.000000000000000082E-05 ), #137, 'distance_accuracy_value', 'NONE');
#105 = AXIS2_PLACEMENT_3D ( 'NONE', #178, #194, #33 ) ;
#106 = ORIENTED_EDGE ( 'NONE', *, *, #245, .F. ) ;
#107 = FACE_OUTER_BOUND ( 'NONE', #3, .T. ) ;
#108 = ADVANCED_FACE ( 'NONE', ( #216 ), #68, .F. ) ;
#109 = FACE_BOUND ( 'NONE', #98, .T. ) ;
#110 = LINE ( 'NONE', #116, #115 ) ;
#111 = CIRCLE ( 'NONE', #212, 2.500000000000000444 ) ;
#112 = DIRECTION ( 'NONE',  ( -1.000000000000000000, -1.530757942277971265E-17, 0.000000000000000000 ) ) ;
#113 = PRODUCT_RELATED_PRODUCT_CATEGORY ( 'part', '', ( #229 ) ) ;
#114 = LINE ( 'NONE', #174, #173 ) ;
#115 = VECTOR ( 'NONE', #65, 1000.000000000000000 ) ;
#116 = CARTESIAN_POINT ( 'NONE',  ( 19.00000000000000000, 2.242407919506722580E-15, 4.000000000000000000 ) ) ;
#117 = VECTOR ( 'NONE', #112, 1000.000000000000000 ) ;
#118 = APPLICATION_CONTEXT ( 'automotive_design' ) ;
#119 = CARTESIAN_POINT ( 'NONE',  ( 19.00000000000000000, 2.242407919506722580E-15, 0.000000000000000000 ) ) ;
#120 = LINE ( 'NONE', #159, #255 ) ;
#121 = ORIENTED_EDGE ( 'NONE', *, *, #245, .T. ) ;
#122 = EDGE_CURVE ( 'NONE', #132, #165, #110, .T. ) ;
#123 = LINE ( 'NONE', #145, #204 ) ;
#124 = ORIENTED_EDGE ( 'NONE', *, *, #215, .T. ) ;
#125 = DIRECTION ( 'NONE',  ( 0.000000000000000000, 0.000000000000000000, 1.000000000000000000 ) ) ;
#126 = EDGE_LOOP ( 'NONE', ( #205, #44, #148, #207 ) ) ;
#127 = AXIS2_PLACEMENT_3D ( 'NONE', #79, #102, #40 ) ;
#128 = ORIENTED_EDGE ( 'NONE', *, *, #176, .F. ) ;
#129 = VERTEX_POINT ( 'NONE', #171 ) ;
#130 = ORIENTED_EDGE ( 'NONE', *, *, #101, .F. ) ;
#131 = EDGE_CURVE ( 'NONE', #13, #129, #154, .T. ) ;
#132 = VERTEX_POINT ( 'NONE', #213 ) ;
#133 = DIRECTION ( 'NONE',  ( 1.000000000000000000, 0.000000000000000000, 0.000000000000000000 ) ) ;
#134 = EDGE_CURVE ( 'NONE', #209, #59, #135, .T. ) ;
#135 = LINE ( 'NONE', #90, #179 ) ;
#136 =( NAMED_UNIT ( * ) PLANE_ANGLE_UNIT ( ) SI_UNIT ( $, .RADIAN. ) );
#137 =( LENGTH_UNIT ( ) NAMED_UNIT ( * ) SI_UNIT ( .MILLI., .METRE. ) );
#138 = CARTESIAN_POINT ( 'NONE',  ( 11.99999999999999822, 9.500000000000000000, 0.000000000000000000 ) ) ;
#139 = MANIFOLD_SOLID_BREP ( '4 Series Threaded Plate M6', #260 ) ;
#140 = DIRECTION ( 'NONE',  ( 0.000000000000000000, 0.000000000000000000, -1.000000000000000000 ) ) ;
#141 = PLANE ( 'NONE',  #224 ) ;
#142 = CARTESIAN_POINT ( 'NONE',  ( 11.99999999999999822, 9.500000000000000000, 4.000000000000000000 ) ) ;
#143 = VERTEX_POINT ( 'NONE', #138 ) ;
#144 = DIRECTION ( 'NONE',  ( 0.000000000000000000, 0.000000000000000000, -1.000000000000000000 ) ) ;
#145 = CARTESIAN_POINT ( 'NONE',  ( 5.972041417005645802E-96, 1.951563910473907981E-15, 4.000000000000000000 ) ) ;
#146 = CARTESIAN_POINT ( 'NONE',  ( 19.00000000000000000, 19.00000000000000000, 4.000000000000000000 ) ) ;
#147 =( GEOMETRIC_REPRESENTATION_CONTEXT ( 3 ) GLOBAL_UNCERTAINTY_ASSIGNED_CONTEXT ( ( #242 ) ) GLOBAL_UNIT_ASSIGNED_CONTEXT ( ( #54, #197, #36 ) ) REPRESENTATION_CONTEXT ( 'NONE', 'WORKASPACE' ) );
#148 = ORIENTED_EDGE ( 'NONE', *, *, #81, .T. ) ;
#149 = PRODUCT_DEFINITION_CONTEXT ( 'detailed design', #118, 'design' ) ;
#150 = ORIENTED_EDGE ( 'NONE', *, *, #101, .T. ) ;
#151 = VERTEX_POINT ( 'NONE', #239 ) ;
#152 =( GEOMETRIC_REPRESENTATION_CONTEXT ( 3 ) GLOBAL_UNCERTAINTY_ASSIGNED_CONTEXT ( ( #104 ) ) GLOBAL_UNIT_ASSIGNED_CONTEXT ( ( #137, #136, #47 ) ) REPRESENTATION_CONTEXT ( 'NONE', 'WORKASPACE' ) );
#153 = ADVANCED_FACE ( 'NONE', ( #51, #232 ), #141, .F. ) ;
#154 = LINE ( 'NONE', #191, #170 ) ;
#155 = CARTESIAN_POINT ( 'NONE',  ( 9.499999999999998224, 9.500000000000000000, 4.000000000000000000 ) ) ;
#156 = CARTESIAN_POINT ( 'NONE',  ( 19.00000000000000000, 19.00000000000000000, 4.000000000000000000 ) ) ;
#157 = EDGE_CURVE ( 'NONE', #184, #13, #48, .T. ) ;
#158 = AXIS2_PLACEMENT_3D ( 'NONE', #219, #97, #74 ) ;
#159 = CARTESIAN_POINT ( 'NONE',  ( 19.00000000000000000, 19.00000000000000000, 0.000000000000000000 ) ) ;
#160 = EDGE_CURVE ( 'NONE', #225, #209, #123, .T. ) ;
#161 = FACE_OUTER_BOUND ( 'NONE', #206, .T. ) ;
#162 = DIRECTION ( 'NONE',  ( 1.000000000000000000, 0.000000000000000000, 0.000000000000000000 ) ) ;
#163 = VERTEX_POINT ( 'NONE', #49 ) ;
#164 = AXIS2_PLACEMENT_3D ( 'NONE', #155, #32, #133 ) ;
#165 = VERTEX_POINT ( 'NONE', #119 ) ;
#166 = EDGE_LOOP ( 'NONE', ( #128, #227, #244, #57 ) ) ;
#167 = DIRECTION ( 'NONE',  ( 0.000000000000000000, 0.000000000000000000, -1.000000000000000000 ) ) ;
#168 = ORIENTED_EDGE ( 'NONE', *, *, #233, .F. ) ;
#169 = VERTEX_POINT ( 'NONE', #199 ) ;
#170 = VECTOR ( 'NONE', #9, 1000.000000000000000 ) ;
#171 = CARTESIAN_POINT ( 'NONE',  ( 6.999999999999997335, 9.500000000000000000, 0.000000000000000000 ) ) ;
#172 = PRODUCT_DEFINITION_SHAPE ( 'NONE', 'NONE',  #96 ) ;
#173 = VECTOR ( 'NONE', #177, 1000.000000000000000 ) ;
#174 = CARTESIAN_POINT ( 'NONE',  ( 19.00000000000000000, 19.00000000000000000, 4.000000000000000000 ) ) ;
#175 = CARTESIAN_POINT ( 'NONE',  ( -4.130242573507722800E-112, 19.00000000000000000, 0.000000000000000000 ) ) ;
#176 = EDGE_CURVE ( 'NONE', #132, #225, #235, .T. ) ;
#177 = DIRECTION ( 'NONE',  ( 0.000000000000000000, -1.000000000000000000, 0.000000000000000000 ) ) ;
#178 = CARTESIAN_POINT ( 'NONE',  ( 9.499999999999998224, 9.500000000000000000, 0.000000000000000000 ) ) ;
#179 = VECTOR ( 'NONE', #231, 1000.000000000000000 ) ;
#180 = DIRECTION ( 'NONE',  ( -3.143179693160867579E-97, 1.000000000000000000, 0.000000000000000000 ) ) ;
#181 = AXIS2_PLACEMENT_3D ( 'NONE', #27, #63, #29 ) ;
#182 = SHAPE_DEFINITION_REPRESENTATION ( #172, #201 ) ;
#183 = FACE_OUTER_BOUND ( 'NONE', #200, .T. ) ;
#184 = VERTEX_POINT ( 'NONE', #142 ) ;
#185 = ORIENTED_EDGE ( 'NONE', *, *, #221, .T. ) ;
#186 = PLANE ( 'NONE',  #127 ) ;
#187 = ORIENTED_EDGE ( 'NONE', *, *, #67, .T. ) ;
#188 = CIRCLE ( 'NONE', #105, 2.500000000000000444 ) ;
#189 = LINE ( 'NONE', #175, #248 ) ;
#190 = LINE ( 'NONE', #8, #117 ) ;
#191 = CARTESIAN_POINT ( 'NONE',  ( 6.999999999999997335, 9.500000000000000000, 4.000000000000000000 ) ) ;
#192 = DIRECTION ( 'NONE',  ( 0.000000000000000000, 0.000000000000000000, -1.000000000000000000 ) ) ;
#193 = VECTOR ( 'NONE', #192, 1000.000000000000000 ) ;
#194 = DIRECTION ( 'NONE',  ( -0.000000000000000000, 0.000000000000000000, -1.000000000000000000 ) ) ;
#195 = ADVANCED_FACE ( 'NONE', ( #70 ), #16, .F. ) ;
#196 = PLANE ( 'NONE',  #158 ) ;
#197 =( NAMED_UNIT ( * ) PLANE_ANGLE_UNIT ( ) SI_UNIT ( $, .RADIAN. ) );
#198 = ORIENTED_EDGE ( 'NONE', *, *, #56, .T. ) ;
#199 = CARTESIAN_POINT ( 'NONE',  ( 19.00000000000000000, 19.00000000000000000, 0.000000000000000000 ) ) ;
#200 = EDGE_LOOP ( 'NONE', ( #25, #58, #22, #230 ) ) ;
#201 = ADVANCED_BREP_SHAPE_REPRESENTATION ( '3.04.p.sp6', ( #139, #23 ), #147 ) ;
#202 = ADVANCED_FACE ( 'NONE', ( #161 ), #196, .T. ) ;
#203 = PRODUCT_CONTEXT ( 'NONE', #211, 'mechanical' ) ;
#204 = VECTOR ( 'NONE', #35, 1000.000000000000000 ) ;
#205 = ORIENTED_EDGE ( 'NONE', *, *, #250, .F. ) ;
#206 = EDGE_LOOP ( 'NONE', ( #246, #103, #41, #187 ) ) ;
#207 = ORIENTED_EDGE ( 'NONE', *, *, #122, .T. ) ;
#208 = CARTESIAN_POINT ( 'NONE',  ( 6.999999999999997335, 9.500000000000000000, 4.000000000000000000 ) ) ;
#209 = VERTEX_POINT ( 'NONE', #38 ) ;
#210 = FACE_OUTER_BOUND ( 'NONE', #126, .T. ) ;
#211 = APPLICATION_CONTEXT ( 'automotive_design' ) ;
#212 = AXIS2_PLACEMENT_3D ( 'NONE', #257, #76, #162 ) ;
#213 = CARTESIAN_POINT ( 'NONE',  ( 19.00000000000000000, 2.242407919506722580E-15, 4.000000000000000000 ) ) ;
#214 = PRESENTATION_STYLE_ASSIGNMENT (( #85 ) ) ;
#215 = EDGE_CURVE ( 'NONE', #209, #163, #254, .T. ) ;
#216 = FACE_OUTER_BOUND ( 'NONE', #61, .T. ) ;
#217 = AXIS2_PLACEMENT_3D ( 'NONE', #156, #251, #66 ) ;
#218 = CARTESIAN_POINT ( 'NONE',  ( -4.130242573507722800E-112, 19.00000000000000000, 4.000000000000000000 ) ) ;
#219 = CARTESIAN_POINT ( 'NONE',  ( 19.00000000000000000, 2.242407919506722580E-15, 4.000000000000000000 ) ) ;
#220 = ORIENTED_EDGE ( 'NONE', *, *, #250, .T. ) ;
#221 = EDGE_CURVE ( 'NONE', #143, #129, #188, .T. ) ;
#222 = CARTESIAN_POINT ( 'NONE',  ( 9.499999999999998224, 9.500000000000000000, 4.000000000000000000 ) ) ;
#223 = FACE_OUTER_BOUND ( 'NONE', #52, .T. ) ;
#224 = AXIS2_PLACEMENT_3D ( 'NONE', #95, #140, #12 ) ;
#225 = VERTEX_POINT ( 'NONE', #237 ) ;
#226 = ORIENTED_EDGE ( 'NONE', *, *, #157, .F. ) ;
#227 = ORIENTED_EDGE ( 'NONE', *, *, #81, .F. ) ;
#228 = STYLED_ITEM ( 'NONE', ( #214 ), #139 ) ;
#229 = PRODUCT ( '3.04.p.sp6', '3.04.p.sp6', '', ( #203 ) ) ;
#230 = ORIENTED_EDGE ( 'NONE', *, *, #7, .T. ) ;
#231 = DIRECTION ( 'NONE',  ( 1.000000000000000000, 0.000000000000000000, 0.000000000000000000 ) ) ;
#232 = FACE_OUTER_BOUND ( 'NONE', #166, .T. ) ;
#233 = EDGE_CURVE ( 'NONE', #151, #163, #72, .T. ) ;
#234 = SURFACE_STYLE_FILL_AREA ( #28 ) ;
#235 = LINE ( 'NONE', #256, #62 ) ;
#236 = DIRECTION ( 'NONE',  ( 0.000000000000000000, -1.000000000000000000, 0.000000000000000000 ) ) ;
#237 = CARTESIAN_POINT ( 'NONE',  ( 5.972041417005645802E-96, 1.951563910473907981E-15, 4.000000000000000000 ) ) ;
#238 = APPLICATION_PROTOCOL_DEFINITION ( 'draft international standard', 'automotive_design', 1998, #211 ) ;
#239 = CARTESIAN_POINT ( 'NONE',  ( 5.972041417005645802E-96, 1.951563910473907981E-15, 0.000000000000000000 ) ) ;
#240 = CARTESIAN_POINT ( 'NONE',  ( 0.000000000000000000, 0.000000000000000000, 0.000000000000000000 ) ) ;
#241 = ORIENTED_EDGE ( 'NONE', *, *, #50, .F. ) ;
#242 = UNCERTAINTY_MEASURE_WITH_UNIT (LENGTH_MEASURE( 1.000000000000000082E-05 ), #54, 'distance_accuracy_value', 'NONE');
#243 = ORIENTED_EDGE ( 'NONE', *, *, #160, .T. ) ;
#244 = ORIENTED_EDGE ( 'NONE', *, *, #134, .F. ) ;
#245 = EDGE_CURVE ( 'NONE', #129, #143, #111, .T. ) ;
#246 = ORIENTED_EDGE ( 'NONE', *, *, #75, .F. ) ;
#247 = DIRECTION ( 'NONE',  ( 0.000000000000000000, -0.000000000000000000, 1.000000000000000000 ) ) ;
#248 = VECTOR ( 'NONE', #91, 1000.000000000000000 ) ;
#249 = CARTESIAN_POINT ( 'NONE',  ( -4.130242573507722800E-112, 19.00000000000000000, 4.000000000000000000 ) ) ;
#250 = EDGE_CURVE ( 'NONE', #169, #165, #120, .T. ) ;
#251 = DIRECTION ( 'NONE',  ( 1.000000000000000000, 0.000000000000000000, 0.000000000000000000 ) ) ;
#252 = CARTESIAN_POINT ( 'NONE',  ( 5.972041417005645802E-96, 1.951563910473907981E-15, 4.000000000000000000 ) ) ;
#253 = LINE ( 'NONE', #252, #78 ) ;
#254 = LINE ( 'NONE', #218, #39 ) ;
#255 = VECTOR ( 'NONE', #236, 1000.000000000000000 ) ;
#256 = CARTESIAN_POINT ( 'NONE',  ( 19.00000000000000000, 2.242407919506722580E-15, 4.000000000000000000 ) ) ;
#257 = CARTESIAN_POINT ( 'NONE',  ( 9.499999999999998224, 9.500000000000000000, 0.000000000000000000 ) ) ;
#258 = CARTESIAN_POINT ( 'NONE',  ( 9.499999999999998224, 9.500000000000000000, 4.000000000000000000 ) ) ;
#259 = MECHANICAL_DESIGN_GEOMETRIC_PRESENTATION_REPRESENTATION (  '', ( #228 ), #152 ) ;
#260 = CLOSED_SHELL ( 'NONE', ( #195, #202, #89, #34, #24, #153, #11, #108 ) ) ;
#261 = ORIENTED_EDGE ( 'NONE', *, *, #221, .F. ) ;
ENDSEC;
END-ISO-10303-21;
