ISO-10303-21;
HEADER;
FILE_DESCRIPTION (( 'STEP AP214' ),
    '1' );
FILE_NAME ('3.04.p.sp5.STEP',
    '2025-06-14T18:50:42',
    ( '' ),
    ( '' ),
    'SwSTEP 2.0',
    'SolidWorks 2023',
    '' );
FILE_SCHEMA (( 'AUTOMOTIVE_DESIGN' ));
ENDSEC;

DATA;
#1 = CIRCLE ( 'NONE', #35, 2.099999999999987210 ) ;
#2 = EDGE_LOOP ( 'NONE', ( #163, #20, #226, #6 ) ) ;
#3 = PLANE ( 'NONE',  #291 ) ;
#4 = ORIENTED_EDGE ( 'NONE', *, *, #196, .T. ) ;
#5 = PRODUCT_CONTEXT ( 'NONE', #122, 'mechanical' ) ;
#6 = ORIENTED_EDGE ( 'NONE', *, *, #283, .T. ) ;
#7 = CARTESIAN_POINT ( 'NONE',  ( -9.500000000000000000, -9.499999999999998224, 2.000000000000000000 ) ) ;
#8 = EDGE_CURVE ( 'NONE', #290, #360, #266, .T. ) ;
#9 = ORIENTED_EDGE ( 'NONE', *, *, #265, .F. ) ;
#10 = ORIENTED_EDGE ( 'NONE', *, *, #8, .F. ) ;
#11 = EDGE_CURVE ( 'NONE', #204, #147, #32, .T. ) ;
#12 = DIRECTION ( 'NONE',  ( 0.000000000000000000, 0.000000000000000000, 1.000000000000000000 ) ) ;
#13 = AXIS2_PLACEMENT_3D ( 'NONE', #295, #186, #310 ) ;
#14 = CARTESIAN_POINT ( 'NONE',  ( 9.500000000000000000, 9.500000000000003553, -2.000000000000000000 ) ) ;
#15 = LINE ( 'NONE', #99, #73 ) ;
#16 = DIRECTION ( 'NONE',  ( -0.7071067811865512365, 8.659560562354977232E-17, 0.7071067811865439090 ) ) ;
#17 = DIRECTION ( 'NONE',  ( 0.000000000000000000, 1.000000000000000000, 0.000000000000000000 ) ) ;
#18 = VECTOR ( 'NONE', #94, 1000.000000000000000 ) ;
#19 = AXIS2_PLACEMENT_3D ( 'NONE', #174, #361, #145 ) ;
#20 = ORIENTED_EDGE ( 'NONE', *, *, #44, .F. ) ;
#21 = CARTESIAN_POINT ( 'NONE',  ( 0.000000000000000000, 0.000000000000000000, -2.000000000000000000 ) ) ;
#22 = CARTESIAN_POINT ( 'NONE',  ( 9.500000000000000000, -9.499999999999998224, -2.000000000000000000 ) ) ;
#23 = EDGE_CURVE ( 'NONE', #252, #227, #208, .T. ) ;
#24 = DIRECTION ( 'NONE',  ( 0.7071067811865512365, 0.000000000000000000, 0.7071067811865439090 ) ) ;
#25 = CARTESIAN_POINT ( 'NONE',  ( 0.000000000000000000, 0.000000000000000000, 1.575000000027921176 ) ) ;
#26 = ORIENTED_EDGE ( 'NONE', *, *, #8, .T. ) ;
#27 = AXIS2_PLACEMENT_3D ( 'NONE', #25, #356, #104 ) ;
#28 = FACE_OUTER_BOUND ( 'NONE', #170, .T. ) ;
#29 = EDGE_LOOP ( 'NONE', ( #223, #68, #270, #65 ) ) ;
#30 = DIRECTION ( 'NONE',  ( 0.000000000000000000, 0.000000000000000000, 1.000000000000000000 ) ) ;
#31 = DIRECTION ( 'NONE',  ( 0.000000000000000000, 0.000000000000000000, 1.000000000000000000 ) ) ;
#32 = LINE ( 'NONE', #339, #18 ) ;
#33 = EDGE_CURVE ( 'NONE', #36, #282, #280, .T. ) ;
#34 = DIRECTION ( 'NONE',  ( 0.000000000000000000, 0.000000000000000000, 1.000000000000000000 ) ) ;
#35 = AXIS2_PLACEMENT_3D ( 'NONE', #62, #137, #42 ) ;
#36 = VERTEX_POINT ( 'NONE', #259 ) ;
#37 = EDGE_CURVE ( 'NONE', #168, #204, #15, .T. ) ;
#38 = EDGE_LOOP ( 'NONE', ( #82, #222, #198, #114 ) ) ;
#39 = EDGE_CURVE ( 'NONE', #143, #168, #237, .T. ) ;
#40 = DIRECTION ( 'NONE',  ( 0.000000000000000000, 0.000000000000000000, 1.000000000000000000 ) ) ;
#41 = ORIENTED_EDGE ( 'NONE', *, *, #39, .F. ) ;
#42 = DIRECTION ( 'NONE',  ( 1.000000000000000000, 0.000000000000000000, 0.000000000000000000 ) ) ;
#43 = CIRCLE ( 'NONE', #58, 2.099999999999987210 ) ;
#44 = EDGE_CURVE ( 'NONE', #278, #204, #101, .T. ) ;
#45 = EDGE_LOOP ( 'NONE', ( #304, #195, #254, #55 ) ) ;
#46 = CARTESIAN_POINT ( 'NONE',  ( 0.000000000000000000, 0.000000000000000000, 1.575000000027921176 ) ) ;
#47 = CARTESIAN_POINT ( 'NONE',  ( -9.500000000000000000, -9.499999999999998224, 2.000000000000000000 ) ) ;
#48 = VECTOR ( 'NONE', #353, 1000.000000000000000 ) ;
#49 = DIRECTION ( 'NONE',  ( 0.000000000000000000, 0.000000000000000000, 1.000000000000000000 ) ) ;
#50 = ADVANCED_FACE ( 'NONE', ( #97 ), #77, .T. ) ;
#51 = LINE ( 'NONE', #316, #296 ) ;
#52 = CARTESIAN_POINT ( 'NONE',  ( -2.099999999999987210, 2.571758278209426180E-16, 1.575000000027921176 ) ) ;
#53 = VERTEX_POINT ( 'NONE', #76 ) ;
#54 = LINE ( 'NONE', #108, #185 ) ;
#55 = ORIENTED_EDGE ( 'NONE', *, *, #247, .F. ) ;
#56 = CARTESIAN_POINT ( 'NONE',  ( 2.099999999999987210, 0.000000000000000000, -1.575000000027929392 ) ) ;
#57 = PLANE ( 'NONE',  #187 ) ;
#58 = AXIS2_PLACEMENT_3D ( 'NONE', #124, #348, #350 ) ;
#59 = PRODUCT_DEFINITION_FORMATION_WITH_SPECIFIED_SOURCE ( 'ANY', '', #117, .NOT_KNOWN. ) ;
#60 = ADVANCED_FACE ( 'NONE', ( #346 ), #249, .F. ) ;
#61 = CARTESIAN_POINT ( 'NONE',  ( -9.500000000000000000, -9.499999999999998224, -2.000000000000000000 ) ) ;
#62 = CARTESIAN_POINT ( 'NONE',  ( 0.000000000000000000, 0.000000000000000000, 1.575000000027921176 ) ) ;
#63 = DIRECTION ( 'NONE',  ( -0.000000000000000000, -0.000000000000000000, -1.000000000000000000 ) ) ;
#64 = CARTESIAN_POINT ( 'NONE',  ( 2.524999999972070253, 0.000000000000000000, 2.000000000000000000 ) ) ;
#65 = ORIENTED_EDGE ( 'NONE', *, *, #345, .T. ) ;
#66 = CONICAL_SURFACE ( 'NONE', #156, 2.524999999972052933, 0.7853981633974426169 ) ;
#67 = CARTESIAN_POINT ( 'NONE',  ( -9.500000000000000000, -9.499999999999998224, -2.000000000000000000 ) ) ;
#68 = ORIENTED_EDGE ( 'NONE', *, *, #283, .F. ) ;
#69 = CARTESIAN_POINT ( 'NONE',  ( 0.000000000000000000, 0.000000000000000000, 0.000000000000000000 ) ) ;
#70 = VERTEX_POINT ( 'NONE', #211 ) ;
#71 = DIRECTION ( 'NONE',  ( 1.000000000000000000, 0.000000000000000000, 0.000000000000000000 ) ) ;
#72 = ORIENTED_EDGE ( 'NONE', *, *, #325, .T. ) ;
#73 = VECTOR ( 'NONE', #213, 1000.000000000000000 ) ;
#74 = FILL_AREA_STYLE_COLOUR ( '', #167 ) ;
#75 = CARTESIAN_POINT ( 'NONE',  ( 0.000000000000000000, 0.000000000000000000, 1.575000000027921176 ) ) ;
#76 = CARTESIAN_POINT ( 'NONE',  ( -2.524999999972052933, 0.000000000000000000, -2.000000000000000000 ) ) ;
#77 = PLANE ( 'NONE',  #100 ) ;
#78 = DIRECTION ( 'NONE',  ( 1.000000000000000000, 0.000000000000000000, 0.000000000000000000 ) ) ;
#79 = VECTOR ( 'NONE', #133, 1000.000000000000000 ) ;
#80 = LINE ( 'NONE', #127, #148 ) ;
#81 = CARTESIAN_POINT ( 'NONE',  ( -9.500000000000000000, 9.500000000000001776, -2.000000000000000000 ) ) ;
#82 = ORIENTED_EDGE ( 'NONE', *, *, #11, .T. ) ;
#83 = AXIS2_PLACEMENT_3D ( 'NONE', #248, #91, #203 ) ;
#84 = ORIENTED_EDGE ( 'NONE', *, *, #345, .F. ) ;
#85 = CARTESIAN_POINT ( 'NONE',  ( 0.000000000000000000, 0.000000000000000000, -2.000000000000000000 ) ) ;
#86 = ORIENTED_EDGE ( 'NONE', *, *, #294, .F. ) ;
#87 = CYLINDRICAL_SURFACE ( 'NONE', #83, 2.099999999999987210 ) ;
#88 = ORIENTED_EDGE ( 'NONE', *, *, #39, .T. ) ;
#89 = AXIS2_PLACEMENT_3D ( 'NONE', #217, #355, #78 ) ;
#90 = AXIS2_PLACEMENT_3D ( 'NONE', #85, #31, #71 ) ;
#91 = DIRECTION ( 'NONE',  ( -0.000000000000000000, -0.000000000000000000, 1.000000000000000000 ) ) ;
#92 = CARTESIAN_POINT ( 'NONE',  ( 0.000000000000000000, 0.000000000000000000, 2.000000000000000000 ) ) ;
#93 = ORIENTED_EDGE ( 'NONE', *, *, #177, .T. ) ;
#94 = DIRECTION ( 'NONE',  ( -1.000000000000000000, -9.130123557772669567E-17, 0.000000000000000000 ) ) ;
#95 = EDGE_CURVE ( 'NONE', #227, #53, #182, .T. ) ;
#96 = CONICAL_SURFACE ( 'NONE', #214, 2.099999999999987210, 0.7853981633974533860 ) ;
#97 = FACE_OUTER_BOUND ( 'NONE', #2, .T. ) ;
#98 = MANIFOLD_SOLID_BREP ( 'Chamfer1', #179 ) ;
#99 = CARTESIAN_POINT ( 'NONE',  ( 9.500000000000000000, -9.499999999999998224, 2.000000000000000000 ) ) ;
#100 = AXIS2_PLACEMENT_3D ( 'NONE', #14, #293, #240 ) ;
#101 = LINE ( 'NONE', #347, #105 ) ;
#102 = VECTOR ( 'NONE', #149, 1000.000000000000000 ) ;
#103 = FACE_OUTER_BOUND ( 'NONE', #199, .T. ) ;
#104 = DIRECTION ( 'NONE',  ( 1.000000000000000000, 0.000000000000000000, 0.000000000000000000 ) ) ;
#105 = VECTOR ( 'NONE', #49, 1000.000000000000000 ) ;
#106 = LINE ( 'NONE', #275, #354 ) ;
#107 = CARTESIAN_POINT ( 'NONE',  ( 2.524999999972052933, 3.092233167812841803E-16, -2.000000000000000000 ) ) ;
#108 = CARTESIAN_POINT ( 'NONE',  ( -9.500000000000000000, -9.499999999999998224, -2.000000000000000000 ) ) ;
#109 = ORIENTED_EDGE ( 'NONE', *, *, #177, .F. ) ;
#110 = VECTOR ( 'NONE', #157, 1000.000000000000000 ) ;
#111 = FACE_OUTER_BOUND ( 'NONE', #274, .T. ) ;
#112 = ORIENTED_EDGE ( 'NONE', *, *, #23, .F. ) ;
#113 = ORIENTED_EDGE ( 'NONE', *, *, #241, .T. ) ;
#114 = ORIENTED_EDGE ( 'NONE', *, *, #37, .T. ) ;
#115 = DIRECTION ( 'NONE',  ( 1.000000000000000000, 0.000000000000000000, 0.000000000000000000 ) ) ;
#116 = EDGE_LOOP ( 'NONE', ( #190, #84, #255, #88 ) ) ;
#117 = PRODUCT ( '3.04.p.sp5', '3.04.p.sp5', '', ( #5 ) ) ;
#118 = EDGE_LOOP ( 'NONE', ( #178, #288 ) ) ;
#119 = PRODUCT_DEFINITION_SHAPE ( 'NONE', 'NONE',  #224 ) ;
#120 = SURFACE_STYLE_USAGE ( .BOTH. , #159 ) ;
#121 = CARTESIAN_POINT ( 'NONE',  ( -2.524999999972052933, 0.000000000000000000, -2.000000000000000000 ) ) ;
#122 = APPLICATION_CONTEXT ( 'automotive_design' ) ;
#123 = CARTESIAN_POINT ( 'NONE',  ( 9.500000000000000000, -9.499999999999998224, -2.000000000000000000 ) ) ;
#124 = CARTESIAN_POINT ( 'NONE',  ( 0.000000000000000000, 0.000000000000000000, -1.575000000027929392 ) ) ;
#125 = AXIS2_PLACEMENT_3D ( 'NONE', #69, #34, #115 ) ;
#126 = ADVANCED_FACE ( 'NONE', ( #238 ), #96, .F. ) ;
#127 = CARTESIAN_POINT ( 'NONE',  ( -2.099999999999987210, 2.571758278209426180E-16, 2.000000000000000000 ) ) ;
#128 = FACE_OUTER_BOUND ( 'NONE', #175, .T. ) ;
#129 = LINE ( 'NONE', #244, #79 ) ;
#130 = ORIENTED_EDGE ( 'NONE', *, *, #44, .T. ) ;
#131 = DIRECTION ( 'NONE',  ( 0.000000000000000000, 0.000000000000000000, 1.000000000000000000 ) ) ;
#132 =( GEOMETRIC_REPRESENTATION_CONTEXT ( 3 ) GLOBAL_UNCERTAINTY_ASSIGNED_CONTEXT ( ( #315 ) ) GLOBAL_UNIT_ASSIGNED_CONTEXT ( ( #264, #236, #234 ) ) REPRESENTATION_CONTEXT ( 'NONE', 'WORKASPACE' ) );
#133 = DIRECTION ( 'NONE',  ( -1.000000000000000000, -9.130123557772669567E-17, 0.000000000000000000 ) ) ;
#134 = DIRECTION ( 'NONE',  ( -1.000000000000000000, 0.000000000000000000, 0.000000000000000000 ) ) ;
#135 = ADVANCED_BREP_SHAPE_REPRESENTATION ( '3.04.p.sp5', ( #98, #125 ), #344 ) ;
#136 = CARTESIAN_POINT ( 'NONE',  ( -2.524999999972070253, 3.092233167812862511E-16, 2.000000000000000000 ) ) ;
#137 = DIRECTION ( 'NONE',  ( 0.000000000000000000, 0.000000000000000000, 1.000000000000000000 ) ) ;
#138 = ORIENTED_EDGE ( 'NONE', *, *, #241, .F. ) ;
#139 = AXIS2_PLACEMENT_3D ( 'NONE', #75, #216, #292 ) ;
#140 = CONICAL_SURFACE ( 'NONE', #139, 2.099999999999987210, 0.7853981633974533860 ) ;
#141 = VECTOR ( 'NONE', #253, 1000.000000000000000 ) ;
#142 = APPLICATION_PROTOCOL_DEFINITION ( 'draft international standard', 'automotive_design', 1998, #184 ) ;
#143 = VERTEX_POINT ( 'NONE', #123 ) ;
#144 = ORIENTED_EDGE ( 'NONE', *, *, #196, .F. ) ;
#145 = DIRECTION ( 'NONE',  ( 1.000000000000000000, 0.000000000000000000, 0.000000000000000000 ) ) ;
#146 = EDGE_CURVE ( 'NONE', #143, #278, #51, .T. ) ;
#147 = VERTEX_POINT ( 'NONE', #263 ) ;
#148 = VECTOR ( 'NONE', #321, 1000.000000000000000 ) ;
#149 = DIRECTION ( 'NONE',  ( -0.000000000000000000, -0.000000000000000000, 1.000000000000000000 ) ) ;
#150 = ORIENTED_EDGE ( 'NONE', *, *, #340, .T. ) ;
#151 = DIRECTION ( 'NONE',  ( 1.000000000000000000, 0.000000000000000000, 0.000000000000000000 ) ) ;
#152 = EDGE_CURVE ( 'NONE', #166, #290, #158, .T. ) ;
#153 = DIRECTION ( 'NONE',  ( 0.000000000000000000, -1.000000000000000000, 0.000000000000000000 ) ) ;
#154 = EDGE_CURVE ( 'NONE', #227, #252, #43, .T. ) ;
#155 = UNCERTAINTY_MEASURE_WITH_UNIT (LENGTH_MEASURE( 1.000000000000000082E-05 ), #331, 'distance_accuracy_value', 'NONE');
#156 = AXIS2_PLACEMENT_3D ( 'NONE', #326, #267, #245 ) ;
#157 = DIRECTION ( 'NONE',  ( -0.7071067811865435759, 0.000000000000000000, -0.7071067811865515695 ) ) ;
#158 = LINE ( 'NONE', #313, #194 ) ;
#159 = SURFACE_SIDE_STYLE ('',( #314 ) ) ;
#160 = AXIS2_PLACEMENT_3D ( 'NONE', #302, #63, #171 ) ;
#161 = ADVANCED_FACE ( 'NONE', ( #207 ), #140, .F. ) ;
#162 = DIRECTION ( 'NONE',  ( 1.000000000000000000, 0.000000000000000000, 0.000000000000000000 ) ) ;
#163 = ORIENTED_EDGE ( 'NONE', *, *, #11, .F. ) ;
#164 = EDGE_CURVE ( 'NONE', #308, #168, #318, .T. ) ;
#165 = CARTESIAN_POINT ( 'NONE',  ( 9.500000000000000000, -9.499999999999998224, 2.000000000000000000 ) ) ;
#166 = VERTEX_POINT ( 'NONE', #52 ) ;
#167 = COLOUR_RGB ( '',0.8274509803921568096, 0.8392156862745098200, 0.8274509803921568096 ) ;
#168 = VERTEX_POINT ( 'NONE', #165 ) ;
#169 = DIRECTION ( 'NONE',  ( 0.000000000000000000, 0.000000000000000000, -1.000000000000000000 ) ) ;
#170 = EDGE_LOOP ( 'NONE', ( #109, #173, #323, #86 ) ) ;
#171 = DIRECTION ( 'NONE',  ( 1.000000000000000000, 0.000000000000000000, 0.000000000000000000 ) ) ;
#172 = CARTESIAN_POINT ( 'NONE',  ( 0.000000000000000000, 0.000000000000000000, 2.000000000000000000 ) ) ;
#173 = ORIENTED_EDGE ( 'NONE', *, *, #154, .F. ) ;
#174 = CARTESIAN_POINT ( 'NONE',  ( 0.000000000000000000, 0.000000000000000000, 2.000000000000000000 ) ) ;
#175 = EDGE_LOOP ( 'NONE', ( #228, #41, #233, #130 ) ) ;
#176 = DIRECTION ( 'NONE',  ( -0.000000000000000000, -0.000000000000000000, -1.000000000000000000 ) ) ;
#177 = EDGE_CURVE ( 'NONE', #252, #201, #246, .T. ) ;
#178 = ORIENTED_EDGE ( 'NONE', *, *, #262, .T. ) ;
#179 = CLOSED_SHELL ( 'NONE', ( #161, #60, #271, #50, #180, #209, #205, #218, #335, #319, #258, #126 ) ) ;
#180 = ADVANCED_FACE ( 'NONE', ( #128 ), #219, .T. ) ;
#181 = FILL_AREA_STYLE ('',( #74 ) ) ;
#182 = LINE ( 'NONE', #121, #110 ) ;
#183 = PRODUCT_DEFINITION_CONTEXT ( 'detailed design', #184, 'design' ) ;
#184 = APPLICATION_CONTEXT ( 'automotive_design' ) ;
#185 = VECTOR ( 'NONE', #162, 1000.000000000000000 ) ;
#186 = DIRECTION ( 'NONE',  ( -0.000000000000000000, -0.000000000000000000, -1.000000000000000000 ) ) ;
#187 = AXIS2_PLACEMENT_3D ( 'NONE', #273, #358, #286 ) ;
#188 = DIRECTION ( 'NONE',  ( 1.000000000000000000, 0.000000000000000000, -0.000000000000000000 ) ) ;
#189 = CARTESIAN_POINT ( 'NONE',  ( 2.524999999972052933, 3.092233167812841803E-16, -2.000000000000000000 ) ) ;
#190 = ORIENTED_EDGE ( 'NONE', *, *, #164, .F. ) ;
#191 = PLANE ( 'NONE',  #239 ) ;
#192 = ORIENTED_EDGE ( 'NONE', *, *, #312, .T. ) ;
#193 = DIRECTION ( 'NONE',  ( 0.000000000000000000, 0.000000000000000000, 1.000000000000000000 ) ) ;
#194 = VECTOR ( 'NONE', #16, 1000.000000000000000 ) ;
#195 = ORIENTED_EDGE ( 'NONE', *, *, #152, .T. ) ;
#196 = EDGE_CURVE ( 'NONE', #70, #166, #341, .T. ) ;
#197 = DIRECTION ( 'NONE',  ( 0.000000000000000000, -1.000000000000000000, 0.000000000000000000 ) ) ;
#198 = ORIENTED_EDGE ( 'NONE', *, *, #164, .T. ) ;
#199 = EDGE_LOOP ( 'NONE', ( #243, #113, #192, #299 ) ) ;
#200 = DIRECTION ( 'NONE',  ( 1.000000000000000000, 0.000000000000000000, -0.000000000000000000 ) ) ;
#201 = VERTEX_POINT ( 'NONE', #107 ) ;
#202 = AXIS2_PLACEMENT_3D ( 'NONE', #22, #320, #169 ) ;
#203 = DIRECTION ( 'NONE',  ( 1.000000000000000000, 0.000000000000000000, 0.000000000000000000 ) ) ;
#204 = VERTEX_POINT ( 'NONE', #277 ) ;
#205 = ADVANCED_FACE ( 'NONE', ( #324 ), #191, .T. ) ;
#206 = EDGE_LOOP ( 'NONE', ( #150, #26 ) ) ;
#207 = FACE_OUTER_BOUND ( 'NONE', #45, .T. ) ;
#208 = CIRCLE ( 'NONE', #160, 2.099999999999987210 ) ;
#209 = ADVANCED_FACE ( 'NONE', ( #298 ), #57, .T. ) ;
#210 = DIRECTION ( 'NONE',  ( 0.000000000000000000, 0.000000000000000000, 1.000000000000000000 ) ) ;
#211 = CARTESIAN_POINT ( 'NONE',  ( 2.099999999999987210, 0.000000000000000000, 1.575000000027921176 ) ) ;
#212 = PLANE ( 'NONE',  #306 ) ;
#213 = DIRECTION ( 'NONE',  ( 0.000000000000000000, 1.000000000000000000, 0.000000000000000000 ) ) ;
#214 = AXIS2_PLACEMENT_3D ( 'NONE', #46, #210, #151 ) ;
#215 = VECTOR ( 'NONE', #197, 1000.000000000000000 ) ;
#216 = DIRECTION ( 'NONE',  ( 0.000000000000000000, 0.000000000000000000, 1.000000000000000000 ) ) ;
#217 = CARTESIAN_POINT ( 'NONE',  ( 0.000000000000000000, 0.000000000000000000, 2.000000000000000000 ) ) ;
#218 = ADVANCED_FACE ( 'NONE', ( #284, #232 ), #212, .F. ) ;
#219 = PLANE ( 'NONE',  #202 ) ;
#220 = ORIENTED_EDGE ( 'NONE', *, *, #154, .T. ) ;
#221 = DIRECTION ( 'NONE',  ( 1.000000000000000000, 0.000000000000000000, 0.000000000000000000 ) ) ;
#222 = ORIENTED_EDGE ( 'NONE', *, *, #322, .T. ) ;
#223 = ORIENTED_EDGE ( 'NONE', *, *, #322, .F. ) ;
#224 = PRODUCT_DEFINITION ( 'UNKNOWN', '', #59, #183 ) ;
#225 = LINE ( 'NONE', #301, #102 ) ;
#226 = ORIENTED_EDGE ( 'NONE', *, *, #265, .T. ) ;
#227 = VERTEX_POINT ( 'NONE', #297 ) ;
#228 = ORIENTED_EDGE ( 'NONE', *, *, #37, .F. ) ;
#229 = VECTOR ( 'NONE', #24, 1000.000000000000000 ) ;
#230 = SHAPE_DEFINITION_REPRESENTATION ( #119, #135 ) ;
#231 = ORIENTED_EDGE ( 'NONE', *, *, #146, .F. ) ;
#232 = FACE_OUTER_BOUND ( 'NONE', #359, .T. ) ;
#233 = ORIENTED_EDGE ( 'NONE', *, *, #146, .T. ) ;
#234 =( NAMED_UNIT ( * ) SI_UNIT ( $, .STERADIAN. ) SOLID_ANGLE_UNIT ( ) );
#235 = AXIS2_PLACEMENT_3D ( 'NONE', #21, #131, #221 ) ;
#236 =( NAMED_UNIT ( * ) PLANE_ANGLE_UNIT ( ) SI_UNIT ( $, .RADIAN. ) );
#237 = LINE ( 'NONE', #260, #317 ) ;
#238 = FACE_OUTER_BOUND ( 'NONE', #328, .T. ) ;
#239 = AXIS2_PLACEMENT_3D ( 'NONE', #81, #134, #193 ) ;
#240 = DIRECTION ( 'NONE',  ( -1.000000000000000000, -9.130123557772669567E-17, 0.000000000000000000 ) ) ;
#241 = EDGE_CURVE ( 'NONE', #227, #166, #80, .T. ) ;
#242 = CYLINDRICAL_SURFACE ( 'NONE', #89, 2.099999999999987210 ) ;
#243 = ORIENTED_EDGE ( 'NONE', *, *, #23, .T. ) ;
#244 = CARTESIAN_POINT ( 'NONE',  ( 9.500000000000000000, 9.500000000000003553, -2.000000000000000000 ) ) ;
#245 = DIRECTION ( 'NONE',  ( -1.000000000000000000, 0.000000000000000000, 0.000000000000000000 ) ) ;
#246 = LINE ( 'NONE', #189, #261 ) ;
#247 = EDGE_CURVE ( 'NONE', #70, #360, #351, .T. ) ;
#248 = CARTESIAN_POINT ( 'NONE',  ( 0.000000000000000000, 0.000000000000000000, 2.000000000000000000 ) ) ;
#249 = CONICAL_SURFACE ( 'NONE', #13, 2.524999999972052933, 0.7853981633974426169 ) ;
#250 = CARTESIAN_POINT ( 'NONE',  ( -9.500000000000000000, 9.500000000000001776, -2.000000000000000000 ) ) ;
#251 = CIRCLE ( 'NONE', #19, 2.524999999972070253 ) ;
#252 = VERTEX_POINT ( 'NONE', #56 ) ;
#253 = DIRECTION ( 'NONE',  ( 0.000000000000000000, 0.000000000000000000, 1.000000000000000000 ) ) ;
#254 = ORIENTED_EDGE ( 'NONE', *, *, #340, .F. ) ;
#255 = ORIENTED_EDGE ( 'NONE', *, *, #276, .T. ) ;
#256 = VECTOR ( 'NONE', #153, 1000.000000000000000 ) ;
#257 = DIRECTION ( 'NONE',  ( 1.000000000000000000, 0.000000000000000000, 0.000000000000000000 ) ) ;
#258 = ADVANCED_FACE ( 'NONE', ( #28 ), #66, .F. ) ;
#259 = CARTESIAN_POINT ( 'NONE',  ( -9.500000000000000000, 9.500000000000001776, -2.000000000000000000 ) ) ;
#260 = CARTESIAN_POINT ( 'NONE',  ( 9.500000000000000000, -9.499999999999998224, -2.000000000000000000 ) ) ;
#261 = VECTOR ( 'NONE', #327, 1000.000000000000000 ) ;
#262 = EDGE_CURVE ( 'NONE', #53, #201, #333, .T. ) ;
#263 = CARTESIAN_POINT ( 'NONE',  ( -9.500000000000000000, 9.500000000000001776, 2.000000000000000000 ) ) ;
#264 =( LENGTH_UNIT ( ) NAMED_UNIT ( * ) SI_UNIT ( .MILLI., .METRE. ) );
#265 = EDGE_CURVE ( 'NONE', #278, #36, #129, .T. ) ;
#266 = CIRCLE ( 'NONE', #300, 2.524999999972070253 ) ;
#267 = DIRECTION ( 'NONE',  ( -0.000000000000000000, -0.000000000000000000, -1.000000000000000000 ) ) ;
#268 = EDGE_LOOP ( 'NONE', ( #112, #93, #285, #307 ) ) ;
#269 = CARTESIAN_POINT ( 'NONE',  ( 2.099999999999987210, 0.000000000000000000, 1.575000000027921176 ) ) ;
#270 = ORIENTED_EDGE ( 'NONE', *, *, #33, .T. ) ;
#271 = ADVANCED_FACE ( 'NONE', ( #103 ), #242, .F. ) ;
#272 = CIRCLE ( 'NONE', #90, 2.524999999972052933 ) ;
#273 = CARTESIAN_POINT ( 'NONE',  ( -9.500000000000000000, -9.499999999999998224, -2.000000000000000000 ) ) ;
#274 = EDGE_LOOP ( 'NONE', ( #138, #220, #72, #4 ) ) ;
#275 = CARTESIAN_POINT ( 'NONE',  ( -9.500000000000000000, 9.500000000000001776, -2.000000000000000000 ) ) ;
#276 = EDGE_CURVE ( 'NONE', #282, #143, #54, .T. ) ;
#277 = CARTESIAN_POINT ( 'NONE',  ( 9.500000000000000000, 9.500000000000003553, 2.000000000000000000 ) ) ;
#278 = VERTEX_POINT ( 'NONE', #352 ) ;
#279 = FACE_BOUND ( 'NONE', #206, .T. ) ;
#280 = LINE ( 'NONE', #250, #256 ) ;
#281 = APPLICATION_PROTOCOL_DEFINITION ( 'draft international standard', 'automotive_design', 1998, #122 ) ;
#282 = VERTEX_POINT ( 'NONE', #61 ) ;
#283 = EDGE_CURVE ( 'NONE', #36, #147, #106, .T. ) ;
#284 = FACE_BOUND ( 'NONE', #118, .T. ) ;
#285 = ORIENTED_EDGE ( 'NONE', *, *, #262, .F. ) ;
#286 = DIRECTION ( 'NONE',  ( 0.000000000000000000, -0.000000000000000000, -1.000000000000000000 ) ) ;
#287 = LINE ( 'NONE', #67, #141 ) ;
#288 = ORIENTED_EDGE ( 'NONE', *, *, #294, .T. ) ;
#289 = LINE ( 'NONE', #329, #215 ) ;
#290 = VERTEX_POINT ( 'NONE', #136 ) ;
#291 = AXIS2_PLACEMENT_3D ( 'NONE', #172, #40, #200 ) ;
#292 = DIRECTION ( 'NONE',  ( 1.000000000000000000, 0.000000000000000000, 0.000000000000000000 ) ) ;
#293 = DIRECTION ( 'NONE',  ( -9.130123557772669567E-17, 1.000000000000000000, 0.000000000000000000 ) ) ;
#294 = EDGE_CURVE ( 'NONE', #201, #53, #272, .T. ) ;
#295 = CARTESIAN_POINT ( 'NONE',  ( 0.000000000000000000, 0.000000000000000000, -2.000000000000000000 ) ) ;
#296 = VECTOR ( 'NONE', #17, 1000.000000000000000 ) ;
#297 = CARTESIAN_POINT ( 'NONE',  ( -2.099999999999987210, 2.571758278209426180E-16, -1.575000000027929392 ) ) ;
#298 = FACE_OUTER_BOUND ( 'NONE', #116, .T. ) ;
#299 = ORIENTED_EDGE ( 'NONE', *, *, #325, .F. ) ;
#300 = AXIS2_PLACEMENT_3D ( 'NONE', #92, #176, #257 ) ;
#301 = CARTESIAN_POINT ( 'NONE',  ( 2.099999999999987210, 0.000000000000000000, 2.000000000000000000 ) ) ;
#302 = CARTESIAN_POINT ( 'NONE',  ( 0.000000000000000000, 0.000000000000000000, -1.575000000027929392 ) ) ;
#303 =( NAMED_UNIT ( * ) PLANE_ANGLE_UNIT ( ) SI_UNIT ( $, .RADIAN. ) );
#304 = ORIENTED_EDGE ( 'NONE', *, *, #312, .F. ) ;
#305 = FACE_OUTER_BOUND ( 'NONE', #38, .T. ) ;
#306 = AXIS2_PLACEMENT_3D ( 'NONE', #338, #357, #188 ) ;
#307 = ORIENTED_EDGE ( 'NONE', *, *, #95, .F. ) ;
#308 = VERTEX_POINT ( 'NONE', #7 ) ;
#309 = ORIENTED_EDGE ( 'NONE', *, *, #33, .F. ) ;
#310 = DIRECTION ( 'NONE',  ( -1.000000000000000000, 0.000000000000000000, 0.000000000000000000 ) ) ;
#311 = STYLED_ITEM ( 'NONE', ( #342 ), #98 ) ;
#312 = EDGE_CURVE ( 'NONE', #166, #70, #1, .T. ) ;
#313 = CARTESIAN_POINT ( 'NONE',  ( -2.099999999999987210, 2.571758278209425687E-16, 1.575000000027921176 ) ) ;
#314 = SURFACE_STYLE_FILL_AREA ( #181 ) ;
#315 = UNCERTAINTY_MEASURE_WITH_UNIT (LENGTH_MEASURE( 1.000000000000000082E-05 ), #264, 'distance_accuracy_value', 'NONE');
#316 = CARTESIAN_POINT ( 'NONE',  ( 9.500000000000000000, -9.499999999999998224, -2.000000000000000000 ) ) ;
#317 = VECTOR ( 'NONE', #12, 1000.000000000000000 ) ;
#318 = LINE ( 'NONE', #47, #48 ) ;
#319 = ADVANCED_FACE ( 'NONE', ( #111 ), #87, .F. ) ;
#320 = DIRECTION ( 'NONE',  ( 1.000000000000000000, 0.000000000000000000, 0.000000000000000000 ) ) ;
#321 = DIRECTION ( 'NONE',  ( -0.000000000000000000, -0.000000000000000000, 1.000000000000000000 ) ) ;
#322 = EDGE_CURVE ( 'NONE', #147, #308, #289, .T. ) ;
#323 = ORIENTED_EDGE ( 'NONE', *, *, #95, .T. ) ;
#324 = FACE_OUTER_BOUND ( 'NONE', #29, .T. ) ;
#325 = EDGE_CURVE ( 'NONE', #252, #70, #225, .T. ) ;
#326 = CARTESIAN_POINT ( 'NONE',  ( 0.000000000000000000, 0.000000000000000000, -2.000000000000000000 ) ) ;
#327 = DIRECTION ( 'NONE',  ( 0.7071067811865435759, 8.659560562354886020E-17, -0.7071067811865515695 ) ) ;
#328 = EDGE_LOOP ( 'NONE', ( #337, #144, #334, #10 ) ) ;
#329 = CARTESIAN_POINT ( 'NONE',  ( -9.500000000000000000, 9.500000000000001776, 2.000000000000000000 ) ) ;
#330 = PRODUCT_RELATED_PRODUCT_CATEGORY ( 'part', '', ( #117 ) ) ;
#331 =( LENGTH_UNIT ( ) NAMED_UNIT ( * ) SI_UNIT ( .MILLI., .METRE. ) );
#332 = ORIENTED_EDGE ( 'NONE', *, *, #276, .F. ) ;
#333 = CIRCLE ( 'NONE', #235, 2.524999999972052933 ) ;
#334 = ORIENTED_EDGE ( 'NONE', *, *, #247, .T. ) ;
#335 = ADVANCED_FACE ( 'NONE', ( #279, #305 ), #3, .T. ) ;
#336 =( NAMED_UNIT ( * ) SI_UNIT ( $, .STERADIAN. ) SOLID_ANGLE_UNIT ( ) );
#337 = ORIENTED_EDGE ( 'NONE', *, *, #152, .F. ) ;
#338 = CARTESIAN_POINT ( 'NONE',  ( 0.000000000000000000, 0.000000000000000000, -2.000000000000000000 ) ) ;
#339 = CARTESIAN_POINT ( 'NONE',  ( 9.500000000000000000, 9.500000000000003553, 2.000000000000000000 ) ) ;
#340 = EDGE_CURVE ( 'NONE', #360, #290, #251, .T. ) ;
#341 = CIRCLE ( 'NONE', #27, 2.099999999999987210 ) ;
#342 = PRESENTATION_STYLE_ASSIGNMENT (( #120 ) ) ;
#343 = MECHANICAL_DESIGN_GEOMETRIC_PRESENTATION_REPRESENTATION (  '', ( #311 ), #132 ) ;
#344 =( GEOMETRIC_REPRESENTATION_CONTEXT ( 3 ) GLOBAL_UNCERTAINTY_ASSIGNED_CONTEXT ( ( #155 ) ) GLOBAL_UNIT_ASSIGNED_CONTEXT ( ( #331, #303, #336 ) ) REPRESENTATION_CONTEXT ( 'NONE', 'WORKASPACE' ) );
#345 = EDGE_CURVE ( 'NONE', #282, #308, #287, .T. ) ;
#346 = FACE_OUTER_BOUND ( 'NONE', #268, .T. ) ;
#347 = CARTESIAN_POINT ( 'NONE',  ( 9.500000000000000000, 9.500000000000003553, -2.000000000000000000 ) ) ;
#348 = DIRECTION ( 'NONE',  ( -0.000000000000000000, -0.000000000000000000, -1.000000000000000000 ) ) ;
#349 = PRESENTATION_LAYER_ASSIGNMENT (  '', '', ( #311 ) ) ;
#350 = DIRECTION ( 'NONE',  ( 1.000000000000000000, 0.000000000000000000, 0.000000000000000000 ) ) ;
#351 = LINE ( 'NONE', #269, #229 ) ;
#352 = CARTESIAN_POINT ( 'NONE',  ( 9.500000000000000000, 9.500000000000003553, -2.000000000000000000 ) ) ;
#353 = DIRECTION ( 'NONE',  ( 1.000000000000000000, 0.000000000000000000, 0.000000000000000000 ) ) ;
#354 = VECTOR ( 'NONE', #30, 1000.000000000000000 ) ;
#355 = DIRECTION ( 'NONE',  ( -0.000000000000000000, -0.000000000000000000, 1.000000000000000000 ) ) ;
#356 = DIRECTION ( 'NONE',  ( 0.000000000000000000, 0.000000000000000000, 1.000000000000000000 ) ) ;
#357 = DIRECTION ( 'NONE',  ( 0.000000000000000000, 0.000000000000000000, 1.000000000000000000 ) ) ;
#358 = DIRECTION ( 'NONE',  ( 0.000000000000000000, -1.000000000000000000, 0.000000000000000000 ) ) ;
#359 = EDGE_LOOP ( 'NONE', ( #9, #231, #332, #309 ) ) ;
#360 = VERTEX_POINT ( 'NONE', #64 ) ;
#361 = DIRECTION ( 'NONE',  ( -0.000000000000000000, -0.000000000000000000, -1.000000000000000000 ) ) ;
ENDSEC;
END-ISO-10303-21;
