ISO-10303-21;
HEADER;
FILE_DESCRIPTION (( 'STEP AP214' ),
    '1' );
FILE_NAME ('3.04.p.sp4.STEP',
    '2025-06-14T18:50:49',
    ( '' ),
    ( '' ),
    'SwSTEP 2.0',
    'SolidWorks 2023',
    '' );
FILE_SCHEMA (( 'AUTOMOTIVE_DESIGN' ));
ENDSEC;

DATA;
#1 = ORIENTED_EDGE ( 'NONE', *, *, #153, .T. ) ;
#2 = EDGE_CURVE ( 'NONE', #19, #149, #21, .T. ) ;
#3 = DIRECTION ( 'NONE',  ( 1.000000000000000000, 0.000000000000000000, -0.000000000000000000 ) ) ;
#4 = ORIENTED_EDGE ( 'NONE', *, *, #2, .T. ) ;
#5 = CARTESIAN_POINT ( 'NONE',  ( 19.00000000000000000, 2.242407919506722580E-15, 0.000000000000000000 ) ) ;
#6 = DIRECTION ( 'NONE',  ( 0.000000000000000000, 0.000000000000000000, 1.000000000000000000 ) ) ;
#7 = EDGE_CURVE ( 'NONE', #164, #19, #226, .T. ) ;
#8 = DIRECTION ( 'NONE',  ( 0.000000000000000000, 0.000000000000000000, 1.000000000000000000 ) ) ;
#9 = CARTESIAN_POINT ( 'NONE',  ( 19.00000000000000000, 19.00000000000000000, 4.000000000000000000 ) ) ;
#10 = LINE ( 'NONE', #87, #38 ) ;
#11 =( NAMED_UNIT ( * ) PLANE_ANGLE_UNIT ( ) SI_UNIT ( $, .RADIAN. ) );
#12 = SURFACE_SIDE_STYLE ('',( #200 ) ) ;
#13 = APPLICATION_PROTOCOL_DEFINITION ( 'draft international standard', 'automotive_design', 1998, #102 ) ;
#14 = VERTEX_POINT ( 'NONE', #212 ) ;
#15 = DIRECTION ( 'NONE',  ( 0.000000000000000000, 0.000000000000000000, 1.000000000000000000 ) ) ;
#16 = CLOSED_SHELL ( 'NONE', ( #182, #54, #236, #114, #129, #76, #34, #199 ) ) ;
#17 = VERTEX_POINT ( 'NONE', #41 ) ;
#18 = CARTESIAN_POINT ( 'NONE',  ( 9.499999999999998224, 9.500000000000000000, 4.000000000000000000 ) ) ;
#19 = VERTEX_POINT ( 'NONE', #85 ) ;
#20 = CARTESIAN_POINT ( 'NONE',  ( 0.000000000000000000, 0.000000000000000000, 0.000000000000000000 ) ) ;
#21 = LINE ( 'NONE', #148, #22 ) ;
#22 = VECTOR ( 'NONE', #170, 1000.000000000000000 ) ;
#23 = ORIENTED_EDGE ( 'NONE', *, *, #220, .T. ) ;
#24 = ORIENTED_EDGE ( 'NONE', *, *, #174, .F. ) ;
#25 = PRODUCT_DEFINITION_CONTEXT ( 'detailed design', #57, 'design' ) ;
#26 = FACE_BOUND ( 'NONE', #143, .T. ) ;
#27 = EDGE_CURVE ( 'NONE', #14, #256, #82, .T. ) ;
#28 = VECTOR ( 'NONE', #53, 1000.000000000000000 ) ;
#29 = FACE_OUTER_BOUND ( 'NONE', #161, .T. ) ;
#30 = CARTESIAN_POINT ( 'NONE',  ( 5.972041417005646634E-96, 1.951563910473907981E-15, 0.000000000000000000 ) ) ;
#31 = DIRECTION ( 'NONE',  ( 1.000000000000000000, 0.000000000000000000, 0.000000000000000000 ) ) ;
#32 =( NAMED_UNIT ( * ) SI_UNIT ( $, .STERADIAN. ) SOLID_ANGLE_UNIT ( ) );
#33 = CARTESIAN_POINT ( 'NONE',  ( 11.09999999999999964, 9.500000000000000000, 4.000000000000000000 ) ) ;
#34 = ADVANCED_FACE ( 'NONE', ( #26, #29 ), #193, .T. ) ;
#35 = VECTOR ( 'NONE', #8, 1000.000000000000000 ) ;
#36 = DIRECTION ( 'NONE',  ( 3.143179693160867579E-97, -1.000000000000000000, 0.000000000000000000 ) ) ;
#37 = ORIENTED_EDGE ( 'NONE', *, *, #220, .F. ) ;
#38 = VECTOR ( 'NONE', #156, 1000.000000000000000 ) ;
#39 = DIRECTION ( 'NONE',  ( -1.000000000000000000, 0.000000000000000000, 0.000000000000000000 ) ) ;
#40 = FACE_OUTER_BOUND ( 'NONE', #81, .T. ) ;
#41 = CARTESIAN_POINT ( 'NONE',  ( 19.00000000000000000, 2.242407919506722580E-15, 4.000000000000000000 ) ) ;
#42 = AXIS2_PLACEMENT_3D ( 'NONE', #221, #260, #36 ) ;
#43 = FACE_OUTER_BOUND ( 'NONE', #109, .T. ) ;
#44 = CARTESIAN_POINT ( 'NONE',  ( 19.00000000000000000, 19.00000000000000000, 4.000000000000000000 ) ) ;
#45 = EDGE_CURVE ( 'NONE', #107, #103, #65, .T. ) ;
#46 = VERTEX_POINT ( 'NONE', #5 ) ;
#47 = APPLICATION_PROTOCOL_DEFINITION ( 'draft international standard', 'automotive_design', 1998, #57 ) ;
#48 = DIRECTION ( 'NONE',  ( 0.000000000000000000, 0.000000000000000000, 1.000000000000000000 ) ) ;
#49 = FILL_AREA_STYLE ('',( #160 ) ) ;
#50 = PLANE ( 'NONE',  #261 ) ;
#51 = AXIS2_PLACEMENT_3D ( 'NONE', #133, #86, #175 ) ;
#52 = CYLINDRICAL_SURFACE ( 'NONE', #219, 1.600000000000002531 ) ;
#53 = DIRECTION ( 'NONE',  ( 0.000000000000000000, 0.000000000000000000, 1.000000000000000000 ) ) ;
#54 = ADVANCED_FACE ( 'NONE', ( #43 ), #131, .T. ) ;
#55 = STYLED_ITEM ( 'NONE', ( #179 ), #110 ) ;
#56 = EDGE_LOOP ( 'NONE', ( #60, #37, #166, #94 ) ) ;
#57 = APPLICATION_CONTEXT ( 'automotive_design' ) ;
#58 = ORIENTED_EDGE ( 'NONE', *, *, #74, .T. ) ;
#59 = ORIENTED_EDGE ( 'NONE', *, *, #45, .T. ) ;
#60 = ORIENTED_EDGE ( 'NONE', *, *, #7, .F. ) ;
#61 = ORIENTED_EDGE ( 'NONE', *, *, #67, .T. ) ;
#62 = AXIS2_PLACEMENT_3D ( 'NONE', #108, #191, #66 ) ;
#63 = UNCERTAINTY_MEASURE_WITH_UNIT (LENGTH_MEASURE( 1.000000000000000082E-05 ), #251, 'distance_accuracy_value', 'NONE');
#64 = ORIENTED_EDGE ( 'NONE', *, *, #157, .F. ) ;
#65 = LINE ( 'NONE', #230, #257 ) ;
#66 = DIRECTION ( 'NONE',  ( -1.000000000000000000, 0.000000000000000000, 0.000000000000000000 ) ) ;
#67 = EDGE_CURVE ( 'NONE', #107, #167, #162, .T. ) ;
#68 = PRESENTATION_LAYER_ASSIGNMENT (  '', '', ( #55 ) ) ;
#69 = AXIS2_PLACEMENT_3D ( 'NONE', #20, #101, #231 ) ;
#70 = LINE ( 'NONE', #136, #84 ) ;
#71 = CARTESIAN_POINT ( 'NONE',  ( 7.899999999999995914, 9.500000000000000000, 0.000000000000000000 ) ) ;
#72 = AXIS2_PLACEMENT_3D ( 'NONE', #255, #122, #204 ) ;
#73 = CARTESIAN_POINT ( 'NONE',  ( 19.00000000000000000, 19.00000000000000000, 0.000000000000000000 ) ) ;
#74 = EDGE_CURVE ( 'NONE', #103, #127, #177, .T. ) ;
#75 = CARTESIAN_POINT ( 'NONE',  ( 19.00000000000000000, 2.242407919506722580E-15, 0.000000000000000000 ) ) ;
#76 = ADVANCED_FACE ( 'NONE', ( #225, #40 ), #237, .F. ) ;
#77 = VECTOR ( 'NONE', #151, 1000.000000000000000 ) ;
#78 = LINE ( 'NONE', #142, #105 ) ;
#79 = CARTESIAN_POINT ( 'NONE',  ( 5.972041417005646634E-96, 1.951563910473907981E-15, 0.000000000000000000 ) ) ;
#80 = ORIENTED_EDGE ( 'NONE', *, *, #157, .T. ) ;
#81 = EDGE_LOOP ( 'NONE', ( #244, #147, #254, #64 ) ) ;
#82 = LINE ( 'NONE', #208, #104 ) ;
#83 = PRODUCT_CONTEXT ( 'NONE', #102, 'mechanical' ) ;
#84 = VECTOR ( 'NONE', #113, 1000.000000000000000 ) ;
#85 = CARTESIAN_POINT ( 'NONE',  ( -2.065121286753861400E-112, 19.00000000000000000, 4.000000000000000000 ) ) ;
#86 = DIRECTION ( 'NONE',  ( 1.530757942277971265E-17, -1.000000000000000000, 0.000000000000000000 ) ) ;
#87 = CARTESIAN_POINT ( 'NONE',  ( 19.00000000000000000, 2.242407919506722580E-15, 0.000000000000000000 ) ) ;
#88 = DIRECTION ( 'NONE',  ( 0.000000000000000000, 0.000000000000000000, 1.000000000000000000 ) ) ;
#89 = FACE_OUTER_BOUND ( 'NONE', #106, .T. ) ;
#90 = EDGE_CURVE ( 'NONE', #149, #17, #159, .T. ) ;
#91 = CYLINDRICAL_SURFACE ( 'NONE', #72, 1.600000000000002531 ) ;
#92 = FACE_OUTER_BOUND ( 'NONE', #56, .T. ) ;
#93 = PLANE ( 'NONE',  #42 ) ;
#94 = ORIENTED_EDGE ( 'NONE', *, *, #206, .T. ) ;
#95 = CARTESIAN_POINT ( 'NONE',  ( 5.972041417005646634E-96, 1.951563910473907981E-15, 0.000000000000000000 ) ) ;
#96 = CARTESIAN_POINT ( 'NONE',  ( 9.499999999999998224, 9.500000000000000000, 0.000000000000000000 ) ) ;
#97 =( GEOMETRIC_REPRESENTATION_CONTEXT ( 3 ) GLOBAL_UNCERTAINTY_ASSIGNED_CONTEXT ( ( #132 ) ) GLOBAL_UNIT_ASSIGNED_CONTEXT ( ( #253, #238, #163 ) ) REPRESENTATION_CONTEXT ( 'NONE', 'WORKASPACE' ) );
#98 = VERTEX_POINT ( 'NONE', #73 ) ;
#99 = EDGE_CURVE ( 'NONE', #167, #127, #216, .T. ) ;
#100 = ORIENTED_EDGE ( 'NONE', *, *, #228, .T. ) ;
#101 = DIRECTION ( 'NONE',  ( 0.000000000000000000, 0.000000000000000000, 1.000000000000000000 ) ) ;
#102 = APPLICATION_CONTEXT ( 'automotive_design' ) ;
#103 = VERTEX_POINT ( 'NONE', #232 ) ;
#104 = VECTOR ( 'NONE', #243, 1000.000000000000000 ) ;
#105 = VECTOR ( 'NONE', #15, 1000.000000000000000 ) ;
#106 = EDGE_LOOP ( 'NONE', ( #205, #59, #58, #188 ) ) ;
#107 = VERTEX_POINT ( 'NONE', #71 ) ;
#108 = CARTESIAN_POINT ( 'NONE',  ( 9.499999999999998224, 9.500000000000000000, 4.000000000000000000 ) ) ;
#109 = EDGE_LOOP ( 'NONE', ( #119, #202, #100, #121 ) ) ;
#110 = MANIFOLD_SOLID_BREP ( '4 Series Threaded Plate M4', #16 ) ;
#111 = DIRECTION ( 'NONE',  ( 0.000000000000000000, 1.000000000000000000, -0.000000000000000000 ) ) ;
#112 = CARTESIAN_POINT ( 'NONE',  ( 5.972041417005646634E-96, 1.951563910473907981E-15, 4.000000000000000000 ) ) ;
#113 = DIRECTION ( 'NONE',  ( -1.000000000000000000, 0.000000000000000000, 0.000000000000000000 ) ) ;
#114 = ADVANCED_FACE ( 'NONE', ( #92 ), #50, .T. ) ;
#115 = DIRECTION ( 'NONE',  ( 1.000000000000000000, 0.000000000000000000, 0.000000000000000000 ) ) ;
#116 = CARTESIAN_POINT ( 'NONE',  ( 19.00000000000000000, 19.00000000000000000, 0.000000000000000000 ) ) ;
#117 = FACE_OUTER_BOUND ( 'NONE', #152, .T. ) ;
#118 = PRODUCT_DEFINITION_FORMATION_WITH_SPECIFIED_SOURCE ( 'ANY', '', #134, .NOT_KNOWN. ) ;
#119 = ORIENTED_EDGE ( 'NONE', *, *, #90, .F. ) ;
#120 = DIRECTION ( 'NONE',  ( 0.000000000000000000, 0.000000000000000000, 1.000000000000000000 ) ) ;
#121 = ORIENTED_EDGE ( 'NONE', *, *, #224, .T. ) ;
#122 = DIRECTION ( 'NONE',  ( 0.000000000000000000, 0.000000000000000000, 1.000000000000000000 ) ) ;
#123 = COLOUR_RGB ( '',0.8274509803921568096, 0.8392156862745098200, 0.8274509803921568096 ) ;
#124 = EDGE_LOOP ( 'NONE', ( #210, #61 ) ) ;
#125 = EDGE_CURVE ( 'NONE', #98, #14, #70, .T. ) ;
#126 = DIRECTION ( 'NONE',  ( 1.000000000000000000, 1.530757942277971265E-17, 0.000000000000000000 ) ) ;
#127 = VERTEX_POINT ( 'NONE', #33 ) ;
#128 = EDGE_LOOP ( 'NONE', ( #24, #229, #80, #23 ) ) ;
#129 = ADVANCED_FACE ( 'NONE', ( #137 ), #197, .T. ) ;
#130 = VECTOR ( 'NONE', #126, 1000.000000000000000 ) ;
#131 = PLANE ( 'NONE',  #51 ) ;
#132 = UNCERTAINTY_MEASURE_WITH_UNIT (LENGTH_MEASURE( 1.000000000000000082E-05 ), #253, 'distance_accuracy_value', 'NONE');
#133 = CARTESIAN_POINT ( 'NONE',  ( 5.972041417005646634E-96, 1.951563910473907981E-15, 0.000000000000000000 ) ) ;
#134 = PRODUCT ( '3.04.p.sp4', '3.04.p.sp4', '', ( #83 ) ) ;
#135 = ORIENTED_EDGE ( 'NONE', *, *, #250, .F. ) ;
#136 = CARTESIAN_POINT ( 'NONE',  ( 19.00000000000000000, 19.00000000000000000, 0.000000000000000000 ) ) ;
#137 = FACE_OUTER_BOUND ( 'NONE', #128, .T. ) ;
#138 = DIRECTION ( 'NONE',  ( 1.000000000000000000, 0.000000000000000000, -0.000000000000000000 ) ) ;
#139 = CARTESIAN_POINT ( 'NONE',  ( 9.499999999999998224, 9.500000000000000000, 0.000000000000000000 ) ) ;
#140 = SURFACE_STYLE_USAGE ( .BOTH. , #12 ) ;
#141 = VECTOR ( 'NONE', #223, 1000.000000000000000 ) ;
#142 = CARTESIAN_POINT ( 'NONE',  ( -2.065121286753861400E-112, 19.00000000000000000, 0.000000000000000000 ) ) ;
#143 = EDGE_LOOP ( 'NONE', ( #135, #201 ) ) ;
#144 = CARTESIAN_POINT ( 'NONE',  ( 19.00000000000000000, 19.00000000000000000, 0.000000000000000000 ) ) ;
#145 = SHAPE_DEFINITION_REPRESENTATION ( #154, #209 ) ;
#146 = LINE ( 'NONE', #144, #192 ) ;
#147 = ORIENTED_EDGE ( 'NONE', *, *, #27, .F. ) ;
#148 = CARTESIAN_POINT ( 'NONE',  ( -2.065121286753861400E-112, 19.00000000000000000, 4.000000000000000000 ) ) ;
#149 = VERTEX_POINT ( 'NONE', #112 ) ;
#150 = AXIS2_PLACEMENT_3D ( 'NONE', #18, #218, #181 ) ;
#151 = DIRECTION ( 'NONE',  ( -1.000000000000000000, 0.000000000000000000, 0.000000000000000000 ) ) ;
#152 = EDGE_LOOP ( 'NONE', ( #239, #186, #207, #1 ) ) ;
#153 = EDGE_CURVE ( 'NONE', #256, #149, #194, .T. ) ;
#154 = PRODUCT_DEFINITION_SHAPE ( 'NONE', 'NONE',  #178 ) ;
#155 = AXIS2_PLACEMENT_3D ( 'NONE', #195, #31, #214 ) ;
#156 = DIRECTION ( 'NONE',  ( 0.000000000000000000, 1.000000000000000000, 0.000000000000000000 ) ) ;
#157 = EDGE_CURVE ( 'NONE', #46, #98, #10, .T. ) ;
#158 = CARTESIAN_POINT ( 'NONE',  ( 19.00000000000000000, 2.242407919506722580E-15, 4.000000000000000000 ) ) ;
#159 = LINE ( 'NONE', #176, #252 ) ;
#160 = FILL_AREA_STYLE_COLOUR ( '', #123 ) ;
#161 = EDGE_LOOP ( 'NONE', ( #184, #222, #169, #4 ) ) ;
#162 = CIRCLE ( 'NONE', #172, 1.600000000000002531 ) ;
#163 =( NAMED_UNIT ( * ) SI_UNIT ( $, .STERADIAN. ) SOLID_ANGLE_UNIT ( ) );
#164 = VERTEX_POINT ( 'NONE', #9 ) ;
#165 = DIRECTION ( 'NONE',  ( 0.000000000000000000, 0.000000000000000000, 1.000000000000000000 ) ) ;
#166 = ORIENTED_EDGE ( 'NONE', *, *, #125, .T. ) ;
#167 = VERTEX_POINT ( 'NONE', #249 ) ;
#168 = AXIS2_PLACEMENT_3D ( 'NONE', #215, #88, #138 ) ;
#169 = ORIENTED_EDGE ( 'NONE', *, *, #7, .T. ) ;
#170 = DIRECTION ( 'NONE',  ( 3.143179693160867579E-97, -1.000000000000000000, 0.000000000000000000 ) ) ;
#171 = EDGE_LOOP ( 'NONE', ( #241, #185, #173, #259 ) ) ;
#172 = AXIS2_PLACEMENT_3D ( 'NONE', #245, #190, #211 ) ;
#173 = ORIENTED_EDGE ( 'NONE', *, *, #99, .T. ) ;
#174 = EDGE_CURVE ( 'NONE', #17, #164, #235, .T. ) ;
#175 = DIRECTION ( 'NONE',  ( 1.000000000000000000, 1.530757942277971265E-17, 0.000000000000000000 ) ) ;
#176 = CARTESIAN_POINT ( 'NONE',  ( 5.972041417005646634E-96, 1.951563910473907981E-15, 4.000000000000000000 ) ) ;
#177 = CIRCLE ( 'NONE', #62, 1.600000000000002531 ) ;
#178 = PRODUCT_DEFINITION ( 'UNKNOWN', '', #118, #25 ) ;
#179 = PRESENTATION_STYLE_ASSIGNMENT (( #140 ) ) ;
#180 = CARTESIAN_POINT ( 'NONE',  ( 11.09999999999999964, 9.500000000000000000, 0.000000000000000000 ) ) ;
#181 = DIRECTION ( 'NONE',  ( -1.000000000000000000, 0.000000000000000000, 0.000000000000000000 ) ) ;
#182 = ADVANCED_FACE ( 'NONE', ( #89 ), #52, .F. ) ;
#183 = LINE ( 'NONE', #75, #141 ) ;
#184 = ORIENTED_EDGE ( 'NONE', *, *, #90, .T. ) ;
#185 = ORIENTED_EDGE ( 'NONE', *, *, #213, .F. ) ;
#186 = ORIENTED_EDGE ( 'NONE', *, *, #206, .F. ) ;
#187 = VECTOR ( 'NONE', #234, 1000.000000000000000 ) ;
#188 = ORIENTED_EDGE ( 'NONE', *, *, #99, .F. ) ;
#189 = CARTESIAN_POINT ( 'NONE',  ( 0.000000000000000000, 0.000000000000000000, 4.000000000000000000 ) ) ;
#190 = DIRECTION ( 'NONE',  ( 0.000000000000000000, 0.000000000000000000, 1.000000000000000000 ) ) ;
#191 = DIRECTION ( 'NONE',  ( 0.000000000000000000, 0.000000000000000000, 1.000000000000000000 ) ) ;
#192 = VECTOR ( 'NONE', #165, 1000.000000000000000 ) ;
#193 = PLANE ( 'NONE',  #240 ) ;
#194 = LINE ( 'NONE', #30, #35 ) ;
#195 = CARTESIAN_POINT ( 'NONE',  ( 19.00000000000000000, 2.242407919506722580E-15, 0.000000000000000000 ) ) ;
#196 = CIRCLE ( 'NONE', #150, 1.600000000000002531 ) ;
#197 = PLANE ( 'NONE',  #155 ) ;
#198 = FACE_OUTER_BOUND ( 'NONE', #171, .T. ) ;
#199 = ADVANCED_FACE ( 'NONE', ( #198 ), #91, .F. ) ;
#200 = SURFACE_STYLE_FILL_AREA ( #49 ) ;
#201 = ORIENTED_EDGE ( 'NONE', *, *, #74, .F. ) ;
#202 = ORIENTED_EDGE ( 'NONE', *, *, #153, .F. ) ;
#203 = MECHANICAL_DESIGN_GEOMETRIC_PRESENTATION_REPRESENTATION (  '', ( #55 ), #233 ) ;
#204 = DIRECTION ( 'NONE',  ( 1.000000000000000000, 0.000000000000000000, 0.000000000000000000 ) ) ;
#205 = ORIENTED_EDGE ( 'NONE', *, *, #67, .F. ) ;
#206 = EDGE_CURVE ( 'NONE', #14, #19, #78, .T. ) ;
#207 = ORIENTED_EDGE ( 'NONE', *, *, #27, .T. ) ;
#208 = CARTESIAN_POINT ( 'NONE',  ( -2.065121286753861400E-112, 19.00000000000000000, 0.000000000000000000 ) ) ;
#209 = ADVANCED_BREP_SHAPE_REPRESENTATION ( '3.04.p.sp4', ( #110, #69 ), #97 ) ;
#210 = ORIENTED_EDGE ( 'NONE', *, *, #213, .T. ) ;
#211 = DIRECTION ( 'NONE',  ( -1.000000000000000000, 0.000000000000000000, 0.000000000000000000 ) ) ;
#212 = CARTESIAN_POINT ( 'NONE',  ( -2.065121286753861400E-112, 19.00000000000000000, 0.000000000000000000 ) ) ;
#213 = EDGE_CURVE ( 'NONE', #167, #107, #248, .T. ) ;
#214 = DIRECTION ( 'NONE',  ( 0.000000000000000000, 0.000000000000000000, -1.000000000000000000 ) ) ;
#215 = CARTESIAN_POINT ( 'NONE',  ( 0.000000000000000000, 0.000000000000000000, 0.000000000000000000 ) ) ;
#216 = LINE ( 'NONE', #180, #28 ) ;
#217 = DIRECTION ( 'NONE',  ( 0.000000000000000000, 0.000000000000000000, 1.000000000000000000 ) ) ;
#218 = DIRECTION ( 'NONE',  ( 0.000000000000000000, 0.000000000000000000, 1.000000000000000000 ) ) ;
#219 = AXIS2_PLACEMENT_3D ( 'NONE', #139, #217, #115 ) ;
#220 = EDGE_CURVE ( 'NONE', #98, #164, #146, .T. ) ;
#221 = CARTESIAN_POINT ( 'NONE',  ( -2.065121286753861400E-112, 19.00000000000000000, 0.000000000000000000 ) ) ;
#222 = ORIENTED_EDGE ( 'NONE', *, *, #174, .T. ) ;
#223 = DIRECTION ( 'NONE',  ( 0.000000000000000000, 0.000000000000000000, 1.000000000000000000 ) ) ;
#224 = EDGE_CURVE ( 'NONE', #46, #17, #183, .T. ) ;
#225 = FACE_BOUND ( 'NONE', #124, .T. ) ;
#226 = LINE ( 'NONE', #44, #77 ) ;
#227 = DIRECTION ( 'NONE',  ( 0.000000000000000000, 0.000000000000000000, 1.000000000000000000 ) ) ;
#228 = EDGE_CURVE ( 'NONE', #256, #46, #258, .T. ) ;
#229 = ORIENTED_EDGE ( 'NONE', *, *, #224, .F. ) ;
#230 = CARTESIAN_POINT ( 'NONE',  ( 7.899999999999995914, 9.500000000000000000, 0.000000000000000000 ) ) ;
#231 = DIRECTION ( 'NONE',  ( 1.000000000000000000, 0.000000000000000000, 0.000000000000000000 ) ) ;
#232 = CARTESIAN_POINT ( 'NONE',  ( 7.899999999999995914, 9.500000000000000000, 4.000000000000000000 ) ) ;
#233 =( GEOMETRIC_REPRESENTATION_CONTEXT ( 3 ) GLOBAL_UNCERTAINTY_ASSIGNED_CONTEXT ( ( #63 ) ) GLOBAL_UNIT_ASSIGNED_CONTEXT ( ( #251, #11, #32 ) ) REPRESENTATION_CONTEXT ( 'NONE', 'WORKASPACE' ) );
#234 = DIRECTION ( 'NONE',  ( 0.000000000000000000, 1.000000000000000000, 0.000000000000000000 ) ) ;
#235 = LINE ( 'NONE', #158, #187 ) ;
#236 = ADVANCED_FACE ( 'NONE', ( #117 ), #93, .T. ) ;
#237 = PLANE ( 'NONE',  #168 ) ;
#238 =( NAMED_UNIT ( * ) PLANE_ANGLE_UNIT ( ) SI_UNIT ( $, .RADIAN. ) );
#239 = ORIENTED_EDGE ( 'NONE', *, *, #2, .F. ) ;
#240 = AXIS2_PLACEMENT_3D ( 'NONE', #189, #6, #3 ) ;
#241 = ORIENTED_EDGE ( 'NONE', *, *, #45, .F. ) ;
#242 = PRODUCT_RELATED_PRODUCT_CATEGORY ( 'part', '', ( #134 ) ) ;
#243 = DIRECTION ( 'NONE',  ( 3.143179693160867579E-97, -1.000000000000000000, 0.000000000000000000 ) ) ;
#244 = ORIENTED_EDGE ( 'NONE', *, *, #228, .F. ) ;
#245 = CARTESIAN_POINT ( 'NONE',  ( 9.499999999999998224, 9.500000000000000000, 0.000000000000000000 ) ) ;
#246 = AXIS2_PLACEMENT_3D ( 'NONE', #96, #120, #39 ) ;
#247 = DIRECTION ( 'NONE',  ( 1.000000000000000000, 1.530757942277971265E-17, 0.000000000000000000 ) ) ;
#248 = CIRCLE ( 'NONE', #246, 1.600000000000002531 ) ;
#249 = CARTESIAN_POINT ( 'NONE',  ( 11.09999999999999964, 9.500000000000000000, 0.000000000000000000 ) ) ;
#250 = EDGE_CURVE ( 'NONE', #127, #103, #196, .T. ) ;
#251 =( LENGTH_UNIT ( ) NAMED_UNIT ( * ) SI_UNIT ( .MILLI., .METRE. ) );
#252 = VECTOR ( 'NONE', #247, 1000.000000000000000 ) ;
#253 =( LENGTH_UNIT ( ) NAMED_UNIT ( * ) SI_UNIT ( .MILLI., .METRE. ) );
#254 = ORIENTED_EDGE ( 'NONE', *, *, #125, .F. ) ;
#255 = CARTESIAN_POINT ( 'NONE',  ( 9.499999999999998224, 9.500000000000000000, 0.000000000000000000 ) ) ;
#256 = VERTEX_POINT ( 'NONE', #95 ) ;
#257 = VECTOR ( 'NONE', #227, 1000.000000000000000 ) ;
#258 = LINE ( 'NONE', #79, #130 ) ;
#259 = ORIENTED_EDGE ( 'NONE', *, *, #250, .T. ) ;
#260 = DIRECTION ( 'NONE',  ( -1.000000000000000000, -3.143179693160867579E-97, 0.000000000000000000 ) ) ;
#261 = AXIS2_PLACEMENT_3D ( 'NONE', #116, #111, #48 ) ;
ENDSEC;
END-ISO-10303-21;
