ISO-10303-21;
HEADER;
FILE_DESCRIPTION (( 'STEP AP214' ),
    '1' );
FILE_NAME ('3.03.p.sp6.STEP',
    '2025-06-14T18:51:09',
    ( '' ),
    ( '' ),
    'SwSTEP 2.0',
    'SolidWorks 2023',
    '' );
FILE_SCHEMA (( 'AUTOMOTIVE_DESIGN' ));
ENDSEC;

DATA;
#1 = CARTESIAN_POINT ( 'NONE',  ( 10.00000000000000000, 15.00000000000000000, -8.673617379884035472E-16 ) ) ;
#2 = DIRECTION ( 'NONE',  ( 0.000000000000000000, 0.000000000000000000, 1.000000000000000000 ) ) ;
#3 = FACE_OUTER_BOUND ( 'NONE', #237, .T. ) ;
#4 = EDGE_CURVE ( 'NONE', #50, #101, #33, .T. ) ;
#5 = SURFACE_STYLE_FILL_AREA ( #29 ) ;
#6 = EDGE_LOOP ( 'NONE', ( #79, #69, #139, #195 ) ) ;
#7 = EDGE_CURVE ( 'NONE', #130, #258, #198, .T. ) ;
#8 = DIRECTION ( 'NONE',  ( 0.000000000000000000, 0.000000000000000000, 1.000000000000000000 ) ) ;
#9 =( NAMED_UNIT ( * ) PLANE_ANGLE_UNIT ( ) SI_UNIT ( $, .RADIAN. ) );
#10 = CIRCLE ( 'NONE', #35, 2.500000000000000444 ) ;
#11 =( NAMED_UNIT ( * ) SI_UNIT ( $, .STERADIAN. ) SOLID_ANGLE_UNIT ( ) );
#12 = CARTESIAN_POINT ( 'NONE',  ( 5.000000000000000888, 7.500000000000000000, -8.673617379884035472E-16 ) ) ;
#13 = EDGE_CURVE ( 'NONE', #14, #152, #34, .T. ) ;
#14 = VERTEX_POINT ( 'NONE', #78 ) ;
#15 = CARTESIAN_POINT ( 'NONE',  ( 10.00000000000000000, 15.00000000000000000, 4.000000000000000000 ) ) ;
#16 = EDGE_CURVE ( 'NONE', #55, #152, #115, .T. ) ;
#17 = PLANE ( 'NONE',  #137 ) ;
#18 = ORIENTED_EDGE ( 'NONE', *, *, #183, .T. ) ;
#19 = DIRECTION ( 'NONE',  ( 1.990680472335215926E-97, -1.000000000000000000, 0.000000000000000000 ) ) ;
#20 = STYLED_ITEM ( 'NONE', ( #245 ), #204 ) ;
#21 = FACE_OUTER_BOUND ( 'NONE', #156, .T. ) ;
#22 = DIRECTION ( 'NONE',  ( 0.000000000000000000, 0.000000000000000000, 1.000000000000000000 ) ) ;
#23 = DIRECTION ( 'NONE',  ( 1.000000000000000000, 0.000000000000000000, -0.000000000000000000 ) ) ;
#24 = AXIS2_PLACEMENT_3D ( 'NONE', #12, #154, #252 ) ;
#25 = LINE ( 'NONE', #222, #254 ) ;
#26 = DIRECTION ( 'NONE',  ( 0.000000000000000000, 0.000000000000000000, 1.000000000000000000 ) ) ;
#27 = CARTESIAN_POINT ( 'NONE',  ( 0.000000000000000000, 0.000000000000000000, 0.000000000000000000 ) ) ;
#28 = DIRECTION ( 'NONE',  ( -1.000000000000000000, 0.000000000000000000, 0.000000000000000000 ) ) ;
#29 = FILL_AREA_STYLE ('',( #129 ) ) ;
#30 = ORIENTED_EDGE ( 'NONE', *, *, #253, .F. ) ;
#31 = AXIS2_PLACEMENT_3D ( 'NONE', #162, #184, #19 ) ;
#32 = EDGE_CURVE ( 'NONE', #101, #174, #233, .T. ) ;
#33 = LINE ( 'NONE', #119, #177 ) ;
#34 = LINE ( 'NONE', #118, #182 ) ;
#35 = AXIS2_PLACEMENT_3D ( 'NONE', #186, #110, #28 ) ;
#36 = FACE_BOUND ( 'NONE', #175, .T. ) ;
#37 = DIRECTION ( 'NONE',  ( 1.000000000000000000, 1.530757942277971881E-17, 0.000000000000000000 ) ) ;
#38 = EDGE_LOOP ( 'NONE', ( #89, #232, #92, #95 ) ) ;
#39 = ADVANCED_FACE ( 'NONE', ( #36, #194 ), #17, .F. ) ;
#40 = DIRECTION ( 'NONE',  ( 0.000000000000000000, 0.000000000000000000, 1.000000000000000000 ) ) ;
#41 = CARTESIAN_POINT ( 'NONE',  ( 0.000000000000000000, 0.000000000000000000, 4.000000000000000000 ) ) ;
#42 = LINE ( 'NONE', #238, #151 ) ;
#43 = FACE_BOUND ( 'NONE', #213, .T. ) ;
#44 = DIRECTION ( 'NONE',  ( -1.000000000000000000, 0.000000000000000000, 0.000000000000000000 ) ) ;
#45 =( LENGTH_UNIT ( ) NAMED_UNIT ( * ) SI_UNIT ( .MILLI., .METRE. ) );
#46 = DIRECTION ( 'NONE',  ( 0.000000000000000000, 1.000000000000000000, 0.000000000000000000 ) ) ;
#47 = PRODUCT_CONTEXT ( 'NONE', #168, 'mechanical' ) ;
#48 = ORIENTED_EDGE ( 'NONE', *, *, #82, .T. ) ;
#49 = ORIENTED_EDGE ( 'NONE', *, *, #225, .F. ) ;
#50 = VERTEX_POINT ( 'NONE', #223 ) ;
#51 = ADVANCED_FACE ( 'NONE', ( #84 ), #199, .T. ) ;
#52 = UNCERTAINTY_MEASURE_WITH_UNIT (LENGTH_MEASURE( 1.000000000000000082E-05 ), #45, 'distance_accuracy_value', 'NONE');
#53 = ORIENTED_EDGE ( 'NONE', *, *, #170, .T. ) ;
#54 = VECTOR ( 'NONE', #256, 1000.000000000000000 ) ;
#55 = VERTEX_POINT ( 'NONE', #239 ) ;
#56 = EDGE_LOOP ( 'NONE', ( #138, #117, #133, #18 ) ) ;
#57 = EDGE_CURVE ( 'NONE', #50, #191, #181, .T. ) ;
#58 = PRODUCT ( '3.03.p.sp6', '3.03.p.sp6', '', ( #47 ) ) ;
#59 = CARTESIAN_POINT ( 'NONE',  ( 10.00000000000000000, 1.128857749464751148E-15, -8.673617379884035472E-16 ) ) ;
#60 = CARTESIAN_POINT ( 'NONE',  ( 2.986020708502822901E-96, 9.757819552369539906E-16, -8.673617379884035472E-16 ) ) ;
#61 = DIRECTION ( 'NONE',  ( 1.000000000000000000, 0.000000000000000000, 0.000000000000000000 ) ) ;
#62 = ADVANCED_BREP_SHAPE_REPRESENTATION ( '3.03.p.sp6', ( #204, #116 ), #64 ) ;
#63 = CYLINDRICAL_SURFACE ( 'NONE', #125, 2.500000000000000444 ) ;
#64 =( GEOMETRIC_REPRESENTATION_CONTEXT ( 3 ) GLOBAL_UNCERTAINTY_ASSIGNED_CONTEXT ( ( #52 ) ) GLOBAL_UNIT_ASSIGNED_CONTEXT ( ( #45, #9, #127 ) ) REPRESENTATION_CONTEXT ( 'NONE', 'WORKASPACE' ) );
#65 = CARTESIAN_POINT ( 'NONE',  ( 2.986020708502822901E-96, 9.757819552369539906E-16, 4.000000000000000000 ) ) ;
#66 = AXIS2_PLACEMENT_3D ( 'NONE', #122, #200, #22 ) ;
#67 = DIRECTION ( 'NONE',  ( 1.000000000000000000, 1.530757942277971881E-17, 0.000000000000000000 ) ) ;
#68 = PLANE ( 'NONE',  #236 ) ;
#69 = ORIENTED_EDGE ( 'NONE', *, *, #243, .F. ) ;
#70 = CARTESIAN_POINT ( 'NONE',  ( 7.500000000000001776, 7.500000000000000000, -8.673617379884035472E-16 ) ) ;
#71 = VECTOR ( 'NONE', #46, 1000.000000000000000 ) ;
#72 = CARTESIAN_POINT ( 'NONE',  ( 7.500000000000001776, 7.500000000000000000, 4.000000000000000000 ) ) ;
#73 = ORIENTED_EDGE ( 'NONE', *, *, #7, .F. ) ;
#74 = CARTESIAN_POINT ( 'NONE',  ( 2.500000000000000444, 7.500000000000000000, -8.673617379884035472E-16 ) ) ;
#75 = ORIENTED_EDGE ( 'NONE', *, *, #100, .T. ) ;
#76 = COLOUR_RGB ( '',0.8274509803921568096, 0.8392156862745098200, 0.8274509803921568096 ) ;
#77 = ORIENTED_EDGE ( 'NONE', *, *, #225, .T. ) ;
#78 = CARTESIAN_POINT ( 'NONE',  ( -2.065121286753861400E-112, 15.00000000000000000, -8.673617379884035472E-16 ) ) ;
#79 = ORIENTED_EDGE ( 'NONE', *, *, #4, .F. ) ;
#80 = VECTOR ( 'NONE', #105, 1000.000000000000000 ) ;
#81 = VERTEX_POINT ( 'NONE', #140 ) ;
#82 = EDGE_CURVE ( 'NONE', #258, #235, #42, .T. ) ;
#83 = PLANE ( 'NONE',  #207 ) ;
#84 = FACE_OUTER_BOUND ( 'NONE', #96, .T. ) ;
#85 = FACE_OUTER_BOUND ( 'NONE', #56, .T. ) ;
#86 = DIRECTION ( 'NONE',  ( 0.000000000000000000, 0.000000000000000000, 1.000000000000000000 ) ) ;
#87 = DIRECTION ( 'NONE',  ( 0.000000000000000000, 0.000000000000000000, 1.000000000000000000 ) ) ;
#88 = CARTESIAN_POINT ( 'NONE',  ( 2.986020708502822901E-96, 9.757819552369539906E-16, -8.673617379884035472E-16 ) ) ;
#89 = ORIENTED_EDGE ( 'NONE', *, *, #100, .F. ) ;
#90 = VECTOR ( 'NONE', #189, 1000.000000000000000 ) ;
#91 = EDGE_CURVE ( 'NONE', #174, #14, #197, .T. ) ;
#92 = ORIENTED_EDGE ( 'NONE', *, *, #4, .T. ) ;
#93 =( GEOMETRIC_REPRESENTATION_CONTEXT ( 3 ) GLOBAL_UNCERTAINTY_ASSIGNED_CONTEXT ( ( #234 ) ) GLOBAL_UNIT_ASSIGNED_CONTEXT ( ( #164, #169, #11 ) ) REPRESENTATION_CONTEXT ( 'NONE', 'WORKASPACE' ) );
#94 = SURFACE_SIDE_STYLE ('',( #5 ) ) ;
#95 = ORIENTED_EDGE ( 'NONE', *, *, #228, .T. ) ;
#96 = EDGE_LOOP ( 'NONE', ( #255, #114, #167, #172 ) ) ;
#97 = ORIENTED_EDGE ( 'NONE', *, *, #253, .T. ) ;
#98 = ORIENTED_EDGE ( 'NONE', *, *, #16, .F. ) ;
#99 = PRODUCT_DEFINITION_CONTEXT ( 'detailed design', #193, 'design' ) ;
#100 = EDGE_CURVE ( 'NONE', #191, #216, #25, .T. ) ;
#101 = VERTEX_POINT ( 'NONE', #59 ) ;
#102 = DIRECTION ( 'NONE',  ( 1.000000000000000000, 0.000000000000000000, 0.000000000000000000 ) ) ;
#103 = DIRECTION ( 'NONE',  ( 1.000000000000000000, 0.000000000000000000, -0.000000000000000000 ) ) ;
#104 = DIRECTION ( 'NONE',  ( -1.000000000000000000, 0.000000000000000000, 0.000000000000000000 ) ) ;
#105 = DIRECTION ( 'NONE',  ( 0.000000000000000000, 0.000000000000000000, 1.000000000000000000 ) ) ;
#106 = FACE_OUTER_BOUND ( 'NONE', #166, .T. ) ;
#107 = APPLICATION_PROTOCOL_DEFINITION ( 'draft international standard', 'automotive_design', 1998, #168 ) ;
#108 = ADVANCED_FACE ( 'NONE', ( #21 ), #219, .F. ) ;
#109 = PRODUCT_DEFINITION_FORMATION_WITH_SPECIFIED_SOURCE ( 'ANY', '', #58, .NOT_KNOWN. ) ;
#110 = DIRECTION ( 'NONE',  ( 0.000000000000000000, 0.000000000000000000, 1.000000000000000000 ) ) ;
#111 = CARTESIAN_POINT ( 'NONE',  ( 10.00000000000000000, 1.128857749464751148E-15, 4.000000000000000000 ) ) ;
#112 = VECTOR ( 'NONE', #261, 1000.000000000000000 ) ;
#113 = SHAPE_DEFINITION_REPRESENTATION ( #260, #62 ) ;
#114 = ORIENTED_EDGE ( 'NONE', *, *, #13, .F. ) ;
#115 = LINE ( 'NONE', #15, #54 ) ;
#116 = AXIS2_PLACEMENT_3D ( 'NONE', #27, #247, #208 ) ;
#117 = ORIENTED_EDGE ( 'NONE', *, *, #228, .F. ) ;
#118 = CARTESIAN_POINT ( 'NONE',  ( -2.065121286753861400E-112, 15.00000000000000000, -8.673617379884035472E-16 ) ) ;
#119 = CARTESIAN_POINT ( 'NONE',  ( 2.986020708502822901E-96, 9.757819552369539906E-16, -8.673617379884035472E-16 ) ) ;
#120 = VECTOR ( 'NONE', #214, 1000.000000000000000 ) ;
#121 = PLANE ( 'NONE',  #66 ) ;
#122 = CARTESIAN_POINT ( 'NONE',  ( 10.00000000000000000, 15.00000000000000000, -8.673617379884035472E-16 ) ) ;
#123 = PLANE ( 'NONE',  #249 ) ;
#124 = CARTESIAN_POINT ( 'NONE',  ( 5.000000000000000888, 7.500000000000000000, -8.673617379884035472E-16 ) ) ;
#125 = AXIS2_PLACEMENT_3D ( 'NONE', #124, #40, #178 ) ;
#126 = EDGE_CURVE ( 'NONE', #152, #191, #185, .T. ) ;
#127 =( NAMED_UNIT ( * ) SI_UNIT ( $, .STERADIAN. ) SOLID_ANGLE_UNIT ( ) );
#128 = PRODUCT_DEFINITION ( 'UNKNOWN', '', #109, #99 ) ;
#129 = FILL_AREA_STYLE_COLOUR ( '', #76 ) ;
#130 = VERTEX_POINT ( 'NONE', #141 ) ;
#131 = AXIS2_PLACEMENT_3D ( 'NONE', #159, #87, #104 ) ;
#132 = ADVANCED_FACE ( 'NONE', ( #106 ), #63, .F. ) ;
#133 = ORIENTED_EDGE ( 'NONE', *, *, #32, .T. ) ;
#134 = ORIENTED_EDGE ( 'NONE', *, *, #217, .T. ) ;
#135 = CARTESIAN_POINT ( 'NONE',  ( 10.00000000000000000, 1.128857749464751148E-15, -8.673617379884035472E-16 ) ) ;
#136 = PRODUCT_RELATED_PRODUCT_CATEGORY ( 'part', '', ( #58 ) ) ;
#137 = AXIS2_PLACEMENT_3D ( 'NONE', #203, #2, #103 ) ;
#138 = ORIENTED_EDGE ( 'NONE', *, *, #196, .F. ) ;
#139 = ORIENTED_EDGE ( 'NONE', *, *, #91, .F. ) ;
#140 = CARTESIAN_POINT ( 'NONE',  ( 2.500000000000000444, 7.500000000000000000, 4.000000000000000000 ) ) ;
#141 = CARTESIAN_POINT ( 'NONE',  ( 2.500000000000000444, 7.500000000000000000, -8.673617379884035472E-16 ) ) ;
#142 = LINE ( 'NONE', #201, #80 ) ;
#143 = CARTESIAN_POINT ( 'NONE',  ( -2.065121286753861400E-112, 15.00000000000000000, 4.000000000000000000 ) ) ;
#144 = ADVANCED_FACE ( 'NONE', ( #43, #3 ), #123, .T. ) ;
#145 = LINE ( 'NONE', #111, #71 ) ;
#146 = CLOSED_SHELL ( 'NONE', ( #108, #205, #51, #155, #179, #39, #144, #132 ) ) ;
#147 = SURFACE_STYLE_USAGE ( .BOTH. , #94 ) ;
#148 = CARTESIAN_POINT ( 'NONE',  ( -2.065121286753861400E-112, 15.00000000000000000, -8.673617379884035472E-16 ) ) ;
#149 = DIRECTION ( 'NONE',  ( 1.530757942277971881E-17, -1.000000000000000000, 0.000000000000000000 ) ) ;
#150 = ORIENTED_EDGE ( 'NONE', *, *, #196, .T. ) ;
#151 = VECTOR ( 'NONE', #224, 1000.000000000000000 ) ;
#152 = VERTEX_POINT ( 'NONE', #143 ) ;
#153 = APPLICATION_PROTOCOL_DEFINITION ( 'draft international standard', 'automotive_design', 1998, #193 ) ;
#154 = DIRECTION ( 'NONE',  ( 0.000000000000000000, 0.000000000000000000, 1.000000000000000000 ) ) ;
#155 = ADVANCED_FACE ( 'NONE', ( #180 ), #121, .T. ) ;
#156 = EDGE_LOOP ( 'NONE', ( #73, #97, #53, #158 ) ) ;
#157 = VECTOR ( 'NONE', #8, 1000.000000000000000 ) ;
#158 = ORIENTED_EDGE ( 'NONE', *, *, #82, .F. ) ;
#159 = CARTESIAN_POINT ( 'NONE',  ( 5.000000000000000888, 7.500000000000000000, 4.000000000000000000 ) ) ;
#160 = CARTESIAN_POINT ( 'NONE',  ( 10.00000000000000000, 15.00000000000000000, -8.673617379884035472E-16 ) ) ;
#161 = CARTESIAN_POINT ( 'NONE',  ( -2.065121286753861400E-112, 15.00000000000000000, 4.000000000000000000 ) ) ;
#162 = CARTESIAN_POINT ( 'NONE',  ( -2.065121286753861400E-112, 15.00000000000000000, -8.673617379884035472E-16 ) ) ;
#163 = DIRECTION ( 'NONE',  ( 0.000000000000000000, 0.000000000000000000, -1.000000000000000000 ) ) ;
#164 =( LENGTH_UNIT ( ) NAMED_UNIT ( * ) SI_UNIT ( .MILLI., .METRE. ) );
#165 = PRESENTATION_LAYER_ASSIGNMENT (  '', '', ( #20 ) ) ;
#166 = EDGE_LOOP ( 'NONE', ( #30, #210, #48, #77 ) ) ;
#167 = ORIENTED_EDGE ( 'NONE', *, *, #243, .T. ) ;
#168 = APPLICATION_CONTEXT ( 'automotive_design' ) ;
#169 =( NAMED_UNIT ( * ) PLANE_ANGLE_UNIT ( ) SI_UNIT ( $, .RADIAN. ) );
#170 = EDGE_CURVE ( 'NONE', #81, #235, #244, .T. ) ;
#171 = ORIENTED_EDGE ( 'NONE', *, *, #7, .T. ) ;
#172 = ORIENTED_EDGE ( 'NONE', *, *, #57, .T. ) ;
#173 = CIRCLE ( 'NONE', #215, 2.500000000000000444 ) ;
#174 = VERTEX_POINT ( 'NONE', #1 ) ;
#175 = EDGE_LOOP ( 'NONE', ( #134, #171 ) ) ;
#176 = ORIENTED_EDGE ( 'NONE', *, *, #91, .T. ) ;
#177 = VECTOR ( 'NONE', #37, 1000.000000000000000 ) ;
#178 = DIRECTION ( 'NONE',  ( 1.000000000000000000, 0.000000000000000000, 0.000000000000000000 ) ) ;
#179 = ADVANCED_FACE ( 'NONE', ( #85 ), #83, .T. ) ;
#180 = FACE_OUTER_BOUND ( 'NONE', #212, .T. ) ;
#181 = LINE ( 'NONE', #60, #112 ) ;
#182 = VECTOR ( 'NONE', #192, 1000.000000000000000 ) ;
#183 = EDGE_CURVE ( 'NONE', #174, #55, #142, .T. ) ;
#184 = DIRECTION ( 'NONE',  ( -1.000000000000000000, -1.990680472335215926E-97, 0.000000000000000000 ) ) ;
#185 = LINE ( 'NONE', #161, #190 ) ;
#186 = CARTESIAN_POINT ( 'NONE',  ( 5.000000000000000888, 7.500000000000000000, -8.673617379884035472E-16 ) ) ;
#187 = DIRECTION ( 'NONE',  ( -1.000000000000000000, 0.000000000000000000, 0.000000000000000000 ) ) ;
#188 = DIRECTION ( 'NONE',  ( 0.000000000000000000, 0.000000000000000000, 1.000000000000000000 ) ) ;
#189 = DIRECTION ( 'NONE',  ( 1.990680472335216186E-97, -1.000000000000000000, 0.000000000000000000 ) ) ;
#190 = VECTOR ( 'NONE', #221, 1000.000000000000000 ) ;
#191 = VERTEX_POINT ( 'NONE', #65 ) ;
#192 = DIRECTION ( 'NONE',  ( 0.000000000000000000, 0.000000000000000000, 1.000000000000000000 ) ) ;
#193 = APPLICATION_CONTEXT ( 'automotive_design' ) ;
#194 = FACE_OUTER_BOUND ( 'NONE', #6, .T. ) ;
#195 = ORIENTED_EDGE ( 'NONE', *, *, #32, .F. ) ;
#196 = EDGE_CURVE ( 'NONE', #216, #55, #145, .T. ) ;
#197 = LINE ( 'NONE', #160, #202 ) ;
#198 = CIRCLE ( 'NONE', #24, 2.500000000000000444 ) ;
#199 = PLANE ( 'NONE',  #31 ) ;
#200 = DIRECTION ( 'NONE',  ( 0.000000000000000000, 1.000000000000000000, -0.000000000000000000 ) ) ;
#201 = CARTESIAN_POINT ( 'NONE',  ( 10.00000000000000000, 15.00000000000000000, -8.673617379884035472E-16 ) ) ;
#202 = VECTOR ( 'NONE', #44, 1000.000000000000000 ) ;
#203 = CARTESIAN_POINT ( 'NONE',  ( 0.000000000000000000, 0.000000000000000000, -8.673617379884035472E-16 ) ) ;
#204 = MANIFOLD_SOLID_BREP ( '3 Series Threaded Plate M6', #146 ) ;
#205 = ADVANCED_FACE ( 'NONE', ( #250 ), #68, .T. ) ;
#206 = CARTESIAN_POINT ( 'NONE',  ( 10.00000000000000000, 1.128857749464751148E-15, 4.000000000000000000 ) ) ;
#207 = AXIS2_PLACEMENT_3D ( 'NONE', #240, #61, #163 ) ;
#208 = DIRECTION ( 'NONE',  ( 1.000000000000000000, 0.000000000000000000, 0.000000000000000000 ) ) ;
#209 = LINE ( 'NONE', #227, #157 ) ;
#210 = ORIENTED_EDGE ( 'NONE', *, *, #217, .F. ) ;
#211 = AXIS2_PLACEMENT_3D ( 'NONE', #241, #86, #102 ) ;
#212 = EDGE_LOOP ( 'NONE', ( #98, #218, #176, #257 ) ) ;
#213 = EDGE_LOOP ( 'NONE', ( #49, #231 ) ) ;
#214 = DIRECTION ( 'NONE',  ( 0.000000000000000000, 1.000000000000000000, 0.000000000000000000 ) ) ;
#215 = AXIS2_PLACEMENT_3D ( 'NONE', #226, #26, #187 ) ;
#216 = VERTEX_POINT ( 'NONE', #206 ) ;
#217 = EDGE_CURVE ( 'NONE', #258, #130, #10, .T. ) ;
#218 = ORIENTED_EDGE ( 'NONE', *, *, #183, .F. ) ;
#219 = CYLINDRICAL_SURFACE ( 'NONE', #211, 2.500000000000000444 ) ;
#220 = MECHANICAL_DESIGN_GEOMETRIC_PRESENTATION_REPRESENTATION (  '', ( #20 ), #93 ) ;
#221 = DIRECTION ( 'NONE',  ( 1.990680472335216186E-97, -1.000000000000000000, 0.000000000000000000 ) ) ;
#222 = CARTESIAN_POINT ( 'NONE',  ( 2.986020708502822901E-96, 9.757819552369539906E-16, 4.000000000000000000 ) ) ;
#223 = CARTESIAN_POINT ( 'NONE',  ( 2.986020708502822901E-96, 9.757819552369539906E-16, -8.673617379884035472E-16 ) ) ;
#224 = DIRECTION ( 'NONE',  ( 0.000000000000000000, 0.000000000000000000, 1.000000000000000000 ) ) ;
#225 = EDGE_CURVE ( 'NONE', #235, #81, #173, .T. ) ;
#226 = CARTESIAN_POINT ( 'NONE',  ( 5.000000000000000888, 7.500000000000000000, 4.000000000000000000 ) ) ;
#227 = CARTESIAN_POINT ( 'NONE',  ( 10.00000000000000000, 1.128857749464751148E-15, -8.673617379884035472E-16 ) ) ;
#228 = EDGE_CURVE ( 'NONE', #101, #216, #209, .T. ) ;
#229 = LINE ( 'NONE', #74, #230 ) ;
#230 = VECTOR ( 'NONE', #188, 1000.000000000000000 ) ;
#231 = ORIENTED_EDGE ( 'NONE', *, *, #170, .F. ) ;
#232 = ORIENTED_EDGE ( 'NONE', *, *, #57, .F. ) ;
#233 = LINE ( 'NONE', #135, #120 ) ;
#234 = UNCERTAINTY_MEASURE_WITH_UNIT (LENGTH_MEASURE( 1.000000000000000082E-05 ), #164, 'distance_accuracy_value', 'NONE');
#235 = VERTEX_POINT ( 'NONE', #72 ) ;
#236 = AXIS2_PLACEMENT_3D ( 'NONE', #88, #149, #67 ) ;
#237 = EDGE_LOOP ( 'NONE', ( #75, #150, #246, #251 ) ) ;
#238 = CARTESIAN_POINT ( 'NONE',  ( 7.500000000000001776, 7.500000000000000000, -8.673617379884035472E-16 ) ) ;
#239 = CARTESIAN_POINT ( 'NONE',  ( 10.00000000000000000, 15.00000000000000000, 4.000000000000000000 ) ) ;
#240 = CARTESIAN_POINT ( 'NONE',  ( 10.00000000000000000, 1.128857749464751148E-15, -8.673617379884035472E-16 ) ) ;
#241 = CARTESIAN_POINT ( 'NONE',  ( 5.000000000000000888, 7.500000000000000000, -8.673617379884035472E-16 ) ) ;
#242 = DIRECTION ( 'NONE',  ( 1.000000000000000000, 1.530757942277971881E-17, 0.000000000000000000 ) ) ;
#243 = EDGE_CURVE ( 'NONE', #14, #50, #248, .T. ) ;
#244 = CIRCLE ( 'NONE', #131, 2.500000000000000444 ) ;
#245 = PRESENTATION_STYLE_ASSIGNMENT (( #147 ) ) ;
#246 = ORIENTED_EDGE ( 'NONE', *, *, #16, .T. ) ;
#247 = DIRECTION ( 'NONE',  ( 0.000000000000000000, 0.000000000000000000, 1.000000000000000000 ) ) ;
#248 = LINE ( 'NONE', #148, #90 ) ;
#249 = AXIS2_PLACEMENT_3D ( 'NONE', #41, #259, #23 ) ;
#250 = FACE_OUTER_BOUND ( 'NONE', #38, .T. ) ;
#251 = ORIENTED_EDGE ( 'NONE', *, *, #126, .T. ) ;
#252 = DIRECTION ( 'NONE',  ( -1.000000000000000000, 0.000000000000000000, 0.000000000000000000 ) ) ;
#253 = EDGE_CURVE ( 'NONE', #130, #81, #229, .T. ) ;
#254 = VECTOR ( 'NONE', #242, 1000.000000000000000 ) ;
#255 = ORIENTED_EDGE ( 'NONE', *, *, #126, .F. ) ;
#256 = DIRECTION ( 'NONE',  ( -1.000000000000000000, 0.000000000000000000, 0.000000000000000000 ) ) ;
#257 = ORIENTED_EDGE ( 'NONE', *, *, #13, .T. ) ;
#258 = VERTEX_POINT ( 'NONE', #70 ) ;
#259 = DIRECTION ( 'NONE',  ( 0.000000000000000000, 0.000000000000000000, 1.000000000000000000 ) ) ;
#260 = PRODUCT_DEFINITION_SHAPE ( 'NONE', 'NONE',  #128 ) ;
#261 = DIRECTION ( 'NONE',  ( 0.000000000000000000, 0.000000000000000000, 1.000000000000000000 ) ) ;
ENDSEC;
END-ISO-10303-21;
