ISO-10303-21;
HEADER;
FILE_DESCRIPTION (( 'STEP AP214' ),
    '1' );
FILE_NAME ('3.03.p.sp5.STEP',
    '2025-06-14T18:50:21',
    ( '' ),
    ( '' ),
    'SwSTEP 2.0',
    'SolidWorks 2023',
    '' );
FILE_SCHEMA (( 'AUTOMOTIVE_DESIGN' ));
ENDSEC;

DATA;
#1 = ADVANCED_FACE ( 'NONE', ( #272 ), #349, .T. ) ;
#2 = FACE_OUTER_BOUND ( 'NONE', #60, .T. ) ;
#3 = ORIENTED_EDGE ( 'NONE', *, *, #283, .T. ) ;
#4 = AXIS2_PLACEMENT_3D ( 'NONE', #87, #360, #195 ) ;
#5 = EDGE_CURVE ( 'NONE', #143, #101, #207, .T. ) ;
#6 = FACE_OUTER_BOUND ( 'NONE', #81, .T. ) ;
#7 = ORIENTED_EDGE ( 'NONE', *, *, #75, .T. ) ;
#8 = DIRECTION ( 'NONE',  ( 0.000000000000000000, 0.000000000000000000, -1.000000000000000000 ) ) ;
#9 = LINE ( 'NONE', #288, #226 ) ;
#10 = ORIENTED_EDGE ( 'NONE', *, *, #291, .F. ) ;
#11 = AXIS2_PLACEMENT_3D ( 'NONE', #48, #105, #325 ) ;
#12 = EDGE_CURVE ( 'NONE', #101, #53, #17, .T. ) ;
#13 = EDGE_CURVE ( 'NONE', #53, #309, #100, .T. ) ;
#14 =( NAMED_UNIT ( * ) SI_UNIT ( $, .STERADIAN. ) SOLID_ANGLE_UNIT ( ) );
#15 = CARTESIAN_POINT ( 'NONE',  ( 0.000000000000000000, 0.000000000000000000, -1.574999999942658713 ) ) ;
#16 = ORIENTED_EDGE ( 'NONE', *, *, #319, .F. ) ;
#17 = LINE ( 'NONE', #108, #259 ) ;
#18 = LINE ( 'NONE', #234, #320 ) ;
#19 = VERTEX_POINT ( 'NONE', #190 ) ;
#20 = DIRECTION ( 'NONE',  ( 0.7071067810919738905, 8.659560561196739603E-17, -0.7071067812811210329 ) ) ;
#21 = EDGE_CURVE ( 'NONE', #146, #256, #26, .T. ) ;
#22 = VECTOR ( 'NONE', #354, 1000.000000000000000 ) ;
#23 = FACE_OUTER_BOUND ( 'NONE', #45, .T. ) ;
#24 = DIRECTION ( 'NONE',  ( -1.000000000000000000, 0.000000000000000000, 0.000000000000000000 ) ) ;
#25 = EDGE_CURVE ( 'NONE', #143, #200, #184, .T. ) ;
#26 = LINE ( 'NONE', #273, #315 ) ;
#27 = DIRECTION ( 'NONE',  ( 1.734723475976807094E-16, -1.000000000000000000, 0.000000000000000000 ) ) ;
#28 = CARTESIAN_POINT ( 'NONE',  ( -2.525000000057328720, 3.092233167917274168E-16, 2.000000000000000888 ) ) ;
#29 = ORIENTED_EDGE ( 'NONE', *, *, #304, .F. ) ;
#30 =( GEOMETRIC_REPRESENTATION_CONTEXT ( 3 ) GLOBAL_UNCERTAINTY_ASSIGNED_CONTEXT ( ( #59 ) ) GLOBAL_UNIT_ASSIGNED_CONTEXT ( ( #293, #257, #176 ) ) REPRESENTATION_CONTEXT ( 'NONE', 'WORKASPACE' ) );
#31 = CYLINDRICAL_SURFACE ( 'NONE', #126, 2.099999999999987210 ) ;
#32 = ORIENTED_EDGE ( 'NONE', *, *, #25, .F. ) ;
#33 = DIRECTION ( 'NONE',  ( 0.000000000000000000, 0.000000000000000000, -1.000000000000000000 ) ) ;
#34 = VERTEX_POINT ( 'NONE', #302 ) ;
#35 = ADVANCED_FACE ( 'NONE', ( #79 ), #252, .F. ) ;
#36 = CARTESIAN_POINT ( 'NONE',  ( 5.000000000000000888, 7.500000000000000000, -2.000000000000000000 ) ) ;
#37 = ORIENTED_EDGE ( 'NONE', *, *, #66, .F. ) ;
#38 = DIRECTION ( 'NONE',  ( -1.000000000000000000, -1.734723475976807094E-16, 0.000000000000000000 ) ) ;
#39 = AXIS2_PLACEMENT_3D ( 'NONE', #98, #50, #305 ) ;
#40 = PRODUCT_DEFINITION_SHAPE ( 'NONE', 'NONE',  #159 ) ;
#41 = PRODUCT ( '3.03.p.sp5', '3.03.p.sp5', '', ( #153 ) ) ;
#42 = DIRECTION ( 'NONE',  ( 0.000000000000000000, 0.000000000000000000, 1.000000000000000000 ) ) ;
#43 = VECTOR ( 'NONE', #134, 1000.000000000000114 ) ;
#44 = DIRECTION ( 'NONE',  ( 0.000000000000000000, -1.000000000000000000, 0.000000000000000000 ) ) ;
#45 = EDGE_LOOP ( 'NONE', ( #336, #238, #359, #29 ) ) ;
#46 = DIRECTION ( 'NONE',  ( 0.000000000000000000, 1.000000000000000000, 0.000000000000000000 ) ) ;
#47 = MANIFOLD_SOLID_BREP ( 'Chamfer1', #69 ) ;
#48 = CARTESIAN_POINT ( 'NONE',  ( 0.000000000000000000, 0.000000000000000000, 2.000000000000000888 ) ) ;
#49 = ORIENTED_EDGE ( 'NONE', *, *, #120, .F. ) ;
#50 = DIRECTION ( 'NONE',  ( -0.000000000000000000, -0.000000000000000000, 1.000000000000000000 ) ) ;
#51 = CARTESIAN_POINT ( 'NONE',  ( -4.999999999999999112, -7.500000000000001776, 2.000000000000000888 ) ) ;
#52 = AXIS2_PLACEMENT_3D ( 'NONE', #351, #24, #96 ) ;
#53 = VERTEX_POINT ( 'NONE', #265 ) ;
#54 = CARTESIAN_POINT ( 'NONE',  ( 5.000000000000000888, -7.500000000000000000, 2.000000000000000888 ) ) ;
#55 = AXIS2_PLACEMENT_3D ( 'NONE', #321, #148, #263 ) ;
#56 = ORIENTED_EDGE ( 'NONE', *, *, #330, .F. ) ;
#57 = AXIS2_PLACEMENT_3D ( 'NONE', #347, #183, #93 ) ;
#58 = DIRECTION ( 'NONE',  ( -0.000000000000000000, -0.000000000000000000, 1.000000000000000000 ) ) ;
#59 = UNCERTAINTY_MEASURE_WITH_UNIT (LENGTH_MEASURE( 1.000000000000000082E-05 ), #293, 'distance_accuracy_value', 'NONE');
#60 = EDGE_LOOP ( 'NONE', ( #86, #16, #312, #139 ) ) ;
#61 = ADVANCED_FACE ( 'NONE', ( #239 ), #129, .T. ) ;
#62 = DIRECTION ( 'NONE',  ( -0.000000000000000000, -0.000000000000000000, 1.000000000000000000 ) ) ;
#63 = EDGE_LOOP ( 'NONE', ( #341, #225, #204, #32 ) ) ;
#64 = CARTESIAN_POINT ( 'NONE',  ( 5.000000000000000888, 7.500000000000000000, 2.000000000000000888 ) ) ;
#65 = VERTEX_POINT ( 'NONE', #70 ) ;
#66 = EDGE_CURVE ( 'NONE', #248, #200, #346, .T. ) ;
#67 = EDGE_CURVE ( 'NONE', #34, #294, #181, .T. ) ;
#68 = CARTESIAN_POINT ( 'NONE',  ( 0.000000000000000000, 0.000000000000000000, -2.000000000000000000 ) ) ;
#69 = CLOSED_SHELL ( 'NONE', ( #106, #345, #186, #261, #1, #133, #61, #178, #150, #300, #35, #116 ) ) ;
#70 = CARTESIAN_POINT ( 'NONE',  ( 5.000000000000000888, 7.500000000000000000, -2.000000000000000000 ) ) ;
#71 = DIRECTION ( 'NONE',  ( 0.000000000000000000, 0.000000000000000000, -1.000000000000000000 ) ) ;
#72 =( GEOMETRIC_REPRESENTATION_CONTEXT ( 3 ) GLOBAL_UNCERTAINTY_ASSIGNED_CONTEXT ( ( #197 ) ) GLOBAL_UNIT_ASSIGNED_CONTEXT ( ( #217, #327, #14 ) ) REPRESENTATION_CONTEXT ( 'NONE', 'WORKASPACE' ) );
#73 = CARTESIAN_POINT ( 'NONE',  ( -4.999999999999999112, -7.500000000000001776, -2.000000000000000000 ) ) ;
#74 = SURFACE_SIDE_STYLE ('',( #77 ) ) ;
#75 = EDGE_CURVE ( 'NONE', #328, #361, #158, .T. ) ;
#76 = ORIENTED_EDGE ( 'NONE', *, *, #161, .F. ) ;
#77 = SURFACE_STYLE_FILL_AREA ( #107 ) ;
#78 = AXIS2_PLACEMENT_3D ( 'NONE', #82, #58, #313 ) ;
#79 = FACE_OUTER_BOUND ( 'NONE', #338, .T. ) ;
#80 = DIRECTION ( 'NONE',  ( -1.000000000000000000, 0.000000000000000000, 0.000000000000000000 ) ) ;
#81 = EDGE_LOOP ( 'NONE', ( #115, #285, #88, #110 ) ) ;
#82 = CARTESIAN_POINT ( 'NONE',  ( 0.000000000000000000, 0.000000000000000000, 1.575000000056344662 ) ) ;
#83 = ORIENTED_EDGE ( 'NONE', *, *, #67, .T. ) ;
#84 = PLANE ( 'NONE',  #4 ) ;
#85 = CIRCLE ( 'NONE', #124, 2.525000000057328720 ) ;
#86 = ORIENTED_EDGE ( 'NONE', *, *, #12, .F. ) ;
#87 = CARTESIAN_POINT ( 'NONE',  ( 0.000000000000000000, 0.000000000000000000, -2.000000000000000000 ) ) ;
#88 = ORIENTED_EDGE ( 'NONE', *, *, #254, .T. ) ;
#89 = DIRECTION ( 'NONE',  ( -0.000000000000000000, -0.000000000000000000, -1.000000000000000000 ) ) ;
#90 = ORIENTED_EDGE ( 'NONE', *, *, #67, .F. ) ;
#91 = DIRECTION ( 'NONE',  ( 1.000000000000000000, 8.673617379884035472E-17, 0.000000000000000000 ) ) ;
#92 = VECTOR ( 'NONE', #44, 1000.000000000000000 ) ;
#93 = DIRECTION ( 'NONE',  ( 1.000000000000000000, 0.000000000000000000, 0.000000000000000000 ) ) ;
#94 = PRODUCT_RELATED_PRODUCT_CATEGORY ( 'part', '', ( #41 ) ) ;
#95 = EDGE_CURVE ( 'NONE', #357, #146, #130, .T. ) ;
#96 = DIRECTION ( 'NONE',  ( 0.000000000000000000, 0.000000000000000000, 1.000000000000000000 ) ) ;
#97 = CARTESIAN_POINT ( 'NONE',  ( -2.099999999999987210, 0.000000000000000000, -1.574999999942658713 ) ) ;
#98 = CARTESIAN_POINT ( 'NONE',  ( 0.000000000000000000, 0.000000000000000000, 2.000000000000000888 ) ) ;
#99 = DIRECTION ( 'NONE',  ( -1.000000000000000000, 0.000000000000000000, 0.000000000000000000 ) ) ;
#100 = CIRCLE ( 'NONE', #203, 2.524999999943643658 ) ;
#101 = VERTEX_POINT ( 'NONE', #299 ) ;
#102 = CARTESIAN_POINT ( 'NONE',  ( 2.099999999999987210, 2.571758278209426180E-16, -2.000000000000000000 ) ) ;
#103 = AXIS2_PLACEMENT_3D ( 'NONE', #132, #109, #335 ) ;
#104 = EDGE_CURVE ( 'NONE', #294, #65, #240, .T. ) ;
#105 = DIRECTION ( 'NONE',  ( 0.000000000000000000, 0.000000000000000000, -1.000000000000000000 ) ) ;
#106 = ADVANCED_FACE ( 'NONE', ( #23 ), #149, .F. ) ;
#107 = FILL_AREA_STYLE ('',( #209 ) ) ;
#108 = CARTESIAN_POINT ( 'NONE',  ( 2.099999999999987210, 2.571758278209426180E-16, -1.574999999942658713 ) ) ;
#109 = DIRECTION ( 'NONE',  ( 0.000000000000000000, 0.000000000000000000, -1.000000000000000000 ) ) ;
#110 = ORIENTED_EDGE ( 'NONE', *, *, #75, .F. ) ;
#111 = ORIENTED_EDGE ( 'NONE', *, *, #13, .T. ) ;
#112 = CARTESIAN_POINT ( 'NONE',  ( 0.000000000000000000, 0.000000000000000000, 2.000000000000000888 ) ) ;
#113 = EDGE_LOOP ( 'NONE', ( #3, #111 ) ) ;
#114 = CARTESIAN_POINT ( 'NONE',  ( 2.099999999999987210, 2.571758278209426180E-16, 1.575000000056344662 ) ) ;
#115 = ORIENTED_EDGE ( 'NONE', *, *, #151, .T. ) ;
#116 = ADVANCED_FACE ( 'NONE', ( #2 ), #271, .F. ) ;
#117 = DIRECTION ( 'NONE',  ( 0.000000000000000000, 0.000000000000000000, -1.000000000000000000 ) ) ;
#118 = VECTOR ( 'NONE', #243, 1000.000000000000000 ) ;
#119 = ORIENTED_EDGE ( 'NONE', *, *, #291, .T. ) ;
#120 = EDGE_CURVE ( 'NONE', #19, #65, #306, .T. ) ;
#121 = FACE_OUTER_BOUND ( 'NONE', #198, .T. ) ;
#122 = CARTESIAN_POINT ( 'NONE',  ( -4.999999999999999112, -7.500000000000001776, 2.000000000000000888 ) ) ;
#123 = CARTESIAN_POINT ( 'NONE',  ( -4.999999999999999112, 7.499999999999999112, -2.000000000000000000 ) ) ;
#124 = AXIS2_PLACEMENT_3D ( 'NONE', #274, #333, #339 ) ;
#125 = EDGE_CURVE ( 'NONE', #357, #216, #250, .T. ) ;
#126 = AXIS2_PLACEMENT_3D ( 'NONE', #276, #89, #228 ) ;
#127 = DIRECTION ( 'NONE',  ( 1.000000000000000000, 0.000000000000000000, 0.000000000000000000 ) ) ;
#128 = APPLICATION_PROTOCOL_DEFINITION ( 'draft international standard', 'automotive_design', 1998, #266 ) ;
#129 = PLANE ( 'NONE',  #182 ) ;
#130 = LINE ( 'NONE', #188, #22 ) ;
#131 = AXIS2_PLACEMENT_3D ( 'NONE', #144, #255, #230 ) ;
#132 = CARTESIAN_POINT ( 'NONE',  ( 0.000000000000000000, 0.000000000000000000, -1.574999999942658713 ) ) ;
#133 = ADVANCED_FACE ( 'NONE', ( #199 ), #224, .T. ) ;
#134 = DIRECTION ( 'NONE',  ( 0.7071067812811210329, 0.000000000000000000, 0.7071067810919738905 ) ) ;
#135 = CARTESIAN_POINT ( 'NONE',  ( -4.999999999999999112, 7.499999999999999112, 2.000000000000000888 ) ) ;
#136 = ORIENTED_EDGE ( 'NONE', *, *, #21, .F. ) ;
#137 = CIRCLE ( 'NONE', #131, 2.099999999999987210 ) ;
#138 = DIRECTION ( 'NONE',  ( 0.000000000000000000, -1.000000000000000000, 0.000000000000000000 ) ) ;
#139 = ORIENTED_EDGE ( 'NONE', *, *, #13, .F. ) ;
#140 = DIRECTION ( 'NONE',  ( 0.000000000000000000, 0.000000000000000000, -1.000000000000000000 ) ) ;
#141 = ORIENTED_EDGE ( 'NONE', *, *, #25, .T. ) ;
#142 = CARTESIAN_POINT ( 'NONE',  ( 5.000000000000000888, 7.500000000000000000, 2.000000000000000888 ) ) ;
#143 = VERTEX_POINT ( 'NONE', #114 ) ;
#144 = CARTESIAN_POINT ( 'NONE',  ( 0.000000000000000000, 0.000000000000000000, -1.574999999942658713 ) ) ;
#145 = MECHANICAL_DESIGN_GEOMETRIC_PRESENTATION_REPRESENTATION (  '', ( #303 ), #72 ) ;
#146 = VERTEX_POINT ( 'NONE', #51 ) ;
#147 = LINE ( 'NONE', #64, #92 ) ;
#148 = DIRECTION ( 'NONE',  ( -0.000000000000000000, -0.000000000000000000, 1.000000000000000000 ) ) ;
#149 = CONICAL_SURFACE ( 'NONE', #103, 2.099999999999987210, 0.7853981632637010435 ) ;
#150 = ADVANCED_FACE ( 'NONE', ( #337, #121 ), #84, .T. ) ;
#151 = EDGE_CURVE ( 'NONE', #328, #143, #236, .T. ) ;
#152 = LINE ( 'NONE', #122, #235 ) ;
#153 = PRODUCT_CONTEXT ( 'NONE', #218, 'mechanical' ) ;
#154 = CIRCLE ( 'NONE', #213, 2.099999999999987210 ) ;
#155 = ORIENTED_EDGE ( 'NONE', *, *, #120, .T. ) ;
#156 = CYLINDRICAL_SURFACE ( 'NONE', #206, 2.099999999999987210 ) ;
#157 = ORIENTED_EDGE ( 'NONE', *, *, #353, .T. ) ;
#158 = LINE ( 'NONE', #268, #189 ) ;
#159 = PRODUCT_DEFINITION ( 'UNKNOWN', '', #253, #169 ) ;
#160 = CARTESIAN_POINT ( 'NONE',  ( -4.999999999999999112, 7.499999999999999112, -2.000000000000000000 ) ) ;
#161 = EDGE_CURVE ( 'NONE', #328, #248, #358, .T. ) ;
#162 = AXIS2_PLACEMENT_3D ( 'NONE', #245, #27, #356 ) ;
#163 = ORIENTED_EDGE ( 'NONE', *, *, #353, .F. ) ;
#164 = PRESENTATION_STYLE_ASSIGNMENT (( #242 ) ) ;
#165 = CARTESIAN_POINT ( 'NONE',  ( -4.999999999999999112, 7.499999999999999112, 2.000000000000000888 ) ) ;
#166 = PLANE ( 'NONE',  #233 ) ;
#167 = ORIENTED_EDGE ( 'NONE', *, *, #286, .T. ) ;
#168 = CARTESIAN_POINT ( 'NONE',  ( 0.000000000000000000, 0.000000000000000000, 1.575000000056344662 ) ) ;
#169 = PRODUCT_DEFINITION_CONTEXT ( 'detailed design', #266, 'design' ) ;
#170 = ORIENTED_EDGE ( 'NONE', *, *, #104, .T. ) ;
#171 = CARTESIAN_POINT ( 'NONE',  ( -2.525000000057328720, 3.092233167917274168E-16, 2.000000000000000888 ) ) ;
#172 = ORIENTED_EDGE ( 'NONE', *, *, #66, .T. ) ;
#173 = CARTESIAN_POINT ( 'NONE',  ( 5.000000000000000888, -7.500000000000000000, -2.000000000000000000 ) ) ;
#174 = ORIENTED_EDGE ( 'NONE', *, *, #5, .F. ) ;
#175 = EDGE_LOOP ( 'NONE', ( #90, #56, #180, #289 ) ) ;
#176 =( NAMED_UNIT ( * ) SI_UNIT ( $, .STERADIAN. ) SOLID_ANGLE_UNIT ( ) );
#177 = AXIS2_PLACEMENT_3D ( 'NONE', #165, #297, #344 ) ;
#178 = ADVANCED_FACE ( 'NONE', ( #191, #192 ), #166, .F. ) ;
#179 = DIRECTION ( 'NONE',  ( -1.000000000000000000, 0.000000000000000000, 0.000000000000000000 ) ) ;
#180 = ORIENTED_EDGE ( 'NONE', *, *, #21, .T. ) ;
#181 = LINE ( 'NONE', #73, #241 ) ;
#182 = AXIS2_PLACEMENT_3D ( 'NONE', #322, #211, #185 ) ;
#183 = DIRECTION ( 'NONE',  ( -0.000000000000000000, -0.000000000000000000, 1.000000000000000000 ) ) ;
#184 = LINE ( 'NONE', #331, #43 ) ;
#185 = DIRECTION ( 'NONE',  ( 0.000000000000000000, 0.000000000000000000, -1.000000000000000000 ) ) ;
#186 = ADVANCED_FACE ( 'NONE', ( #6 ), #31, .F. ) ;
#187 = ORIENTED_EDGE ( 'NONE', *, *, #319, .T. ) ;
#188 = CARTESIAN_POINT ( 'NONE',  ( 5.000000000000000888, -7.500000000000000000, 2.000000000000000888 ) ) ;
#189 = VECTOR ( 'NONE', #215, 1000.000000000000000 ) ;
#190 = CARTESIAN_POINT ( 'NONE',  ( 5.000000000000000888, 7.500000000000000000, 2.000000000000000888 ) ) ;
#191 = FACE_BOUND ( 'NONE', #301, .T. ) ;
#192 = FACE_OUTER_BOUND ( 'NONE', #314, .T. ) ;
#193 = ORIENTED_EDGE ( 'NONE', *, *, #125, .T. ) ;
#194 = COLOUR_RGB ( '',0.8274509803921568096, 0.8392156862745098200, 0.8274509803921568096 ) ;
#195 = DIRECTION ( 'NONE',  ( -1.000000000000000000, 0.000000000000000000, -0.000000000000000000 ) ) ;
#196 = AXIS2_PLACEMENT_3D ( 'NONE', #292, #42, #127 ) ;
#197 = UNCERTAINTY_MEASURE_WITH_UNIT (LENGTH_MEASURE( 1.000000000000000082E-05 ), #217, 'distance_accuracy_value', 'NONE');
#198 = EDGE_LOOP ( 'NONE', ( #170, #229, #119, #83 ) ) ;
#199 = FACE_OUTER_BOUND ( 'NONE', #223, .T. ) ;
#200 = VERTEX_POINT ( 'NONE', #308 ) ;
#201 = EDGE_CURVE ( 'NONE', #200, #248, #85, .T. ) ;
#202 = FACE_OUTER_BOUND ( 'NONE', #231, .T. ) ;
#203 = AXIS2_PLACEMENT_3D ( 'NONE', #355, #350, #329 ) ;
#204 = ORIENTED_EDGE ( 'NONE', *, *, #201, .F. ) ;
#205 = FACE_OUTER_BOUND ( 'NONE', #334, .T. ) ;
#206 = AXIS2_PLACEMENT_3D ( 'NONE', #68, #348, #179 ) ;
#207 = LINE ( 'NONE', #102, #275 ) ;
#208 = CARTESIAN_POINT ( 'NONE',  ( -2.524999999943643658, 0.000000000000000000, -2.000000000000000000 ) ) ;
#209 = FILL_AREA_STYLE_COLOUR ( '', #194 ) ;
#210 = LINE ( 'NONE', #258, #260 ) ;
#211 = DIRECTION ( 'NONE',  ( 1.000000000000000000, 0.000000000000000000, 0.000000000000000000 ) ) ;
#212 = VECTOR ( 'NONE', #311, 1000.000000000000000 ) ;
#213 = AXIS2_PLACEMENT_3D ( 'NONE', #15, #8, #99 ) ;
#214 = EDGE_CURVE ( 'NONE', #143, #328, #332, .T. ) ;
#215 = DIRECTION ( 'NONE',  ( -0.000000000000000000, -0.000000000000000000, -1.000000000000000000 ) ) ;
#216 = VERTEX_POINT ( 'NONE', #173 ) ;
#217 =( LENGTH_UNIT ( ) NAMED_UNIT ( * ) SI_UNIT ( .MILLI., .METRE. ) );
#218 = APPLICATION_CONTEXT ( 'automotive_design' ) ;
#219 = DIRECTION ( 'NONE',  ( 0.000000000000000000, 1.000000000000000000, 0.000000000000000000 ) ) ;
#220 = DIRECTION ( 'NONE',  ( -0.7071067812811210329, 8.659560563513124881E-17, 0.7071067810919738905 ) ) ;
#221 = ORIENTED_EDGE ( 'NONE', *, *, #125, .F. ) ;
#222 = DIRECTION ( 'NONE',  ( -1.000000000000000000, 0.000000000000000000, -0.000000000000000000 ) ) ;
#223 = EDGE_LOOP ( 'NONE', ( #10, #221, #246, #280 ) ) ;
#224 = PLANE ( 'NONE',  #162 ) ;
#225 = ORIENTED_EDGE ( 'NONE', *, *, #161, .T. ) ;
#226 = VECTOR ( 'NONE', #38, 1000.000000000000000 ) ;
#227 = EDGE_CURVE ( 'NONE', #256, #294, #279, .T. ) ;
#228 = DIRECTION ( 'NONE',  ( -1.000000000000000000, 0.000000000000000000, 0.000000000000000000 ) ) ;
#229 = ORIENTED_EDGE ( 'NONE', *, *, #249, .T. ) ;
#230 = DIRECTION ( 'NONE',  ( -1.000000000000000000, 0.000000000000000000, 0.000000000000000000 ) ) ;
#231 = EDGE_LOOP ( 'NONE', ( #282, #317, #167, #155 ) ) ;
#232 = FACE_OUTER_BOUND ( 'NONE', #63, .T. ) ;
#233 = AXIS2_PLACEMENT_3D ( 'NONE', #112, #117, #222 ) ;
#234 = CARTESIAN_POINT ( 'NONE',  ( -2.099999999999987210, 0.000000000000000000, -1.574999999942658713 ) ) ;
#235 = VECTOR ( 'NONE', #71, 1000.000000000000000 ) ;
#236 = CIRCLE ( 'NONE', #78, 2.099999999999987210 ) ;
#237 = CARTESIAN_POINT ( 'NONE',  ( -2.099999999999987210, 0.000000000000000000, 1.575000000056344662 ) ) ;
#238 = ORIENTED_EDGE ( 'NONE', *, *, #12, .T. ) ;
#239 = FACE_OUTER_BOUND ( 'NONE', #277, .T. ) ;
#240 = LINE ( 'NONE', #160, #343 ) ;
#241 = VECTOR ( 'NONE', #46, 1000.000000000000000 ) ;
#242 = SURFACE_STYLE_USAGE ( .BOTH. , #74 ) ;
#243 = DIRECTION ( 'NONE',  ( 0.000000000000000000, 0.000000000000000000, -1.000000000000000000 ) ) ;
#244 = ORIENTED_EDGE ( 'NONE', *, *, #95, .F. ) ;
#245 = CARTESIAN_POINT ( 'NONE',  ( 5.000000000000000888, -7.500000000000000000, 2.000000000000000888 ) ) ;
#246 = ORIENTED_EDGE ( 'NONE', *, *, #95, .T. ) ;
#247 = DIRECTION ( 'NONE',  ( -1.000000000000000000, 0.000000000000000000, 0.000000000000000000 ) ) ;
#248 = VERTEX_POINT ( 'NONE', #28 ) ;
#249 = EDGE_CURVE ( 'NONE', #65, #216, #284, .T. ) ;
#250 = LINE ( 'NONE', #54, #212 ) ;
#251 = ORIENTED_EDGE ( 'NONE', *, *, #214, .T. ) ;
#252 = CONICAL_SURFACE ( 'NONE', #39, 2.525000000057328720, 0.7853981635311954035 ) ;
#253 = PRODUCT_DEFINITION_FORMATION_WITH_SPECIFIED_SOURCE ( 'ANY', '', #41, .NOT_KNOWN. ) ;
#254 = EDGE_CURVE ( 'NONE', #101, #361, #137, .T. ) ;
#255 = DIRECTION ( 'NONE',  ( 0.000000000000000000, 0.000000000000000000, -1.000000000000000000 ) ) ;
#256 = VERTEX_POINT ( 'NONE', #340 ) ;
#257 =( NAMED_UNIT ( * ) PLANE_ANGLE_UNIT ( ) SI_UNIT ( $, .RADIAN. ) );
#258 = CARTESIAN_POINT ( 'NONE',  ( -4.999999999999999112, 7.499999999999999112, 2.000000000000000888 ) ) ;
#259 = VECTOR ( 'NONE', #20, 1000.000000000000114 ) ;
#260 = VECTOR ( 'NONE', #91, 1000.000000000000000 ) ;
#261 = ADVANCED_FACE ( 'NONE', ( #202 ), #316, .T. ) ;
#262 = APPLICATION_PROTOCOL_DEFINITION ( 'draft international standard', 'automotive_design', 1998, #218 ) ;
#263 = DIRECTION ( 'NONE',  ( -1.000000000000000000, 0.000000000000000000, 0.000000000000000000 ) ) ;
#264 = ORIENTED_EDGE ( 'NONE', *, *, #249, .F. ) ;
#265 = CARTESIAN_POINT ( 'NONE',  ( 2.524999999943643658, 3.092233167778050079E-16, -2.000000000000000000 ) ) ;
#266 = APPLICATION_CONTEXT ( 'automotive_design' ) ;
#267 = SHAPE_DEFINITION_REPRESENTATION ( #40, #269 ) ;
#268 = CARTESIAN_POINT ( 'NONE',  ( -2.099999999999987210, 0.000000000000000000, -2.000000000000000000 ) ) ;
#269 = ADVANCED_BREP_SHAPE_REPRESENTATION ( '3.03.p.sp5', ( #47, #196 ), #30 ) ;
#270 = DIRECTION ( 'NONE',  ( 1.000000000000000000, 8.673617379884035472E-17, 0.000000000000000000 ) ) ;
#271 = CONICAL_SURFACE ( 'NONE', #278, 2.099999999999987210, 0.7853981632637010435 ) ;
#272 = FACE_OUTER_BOUND ( 'NONE', #175, .T. ) ;
#273 = CARTESIAN_POINT ( 'NONE',  ( -4.999999999999999112, -7.500000000000001776, 2.000000000000000888 ) ) ;
#274 = CARTESIAN_POINT ( 'NONE',  ( 0.000000000000000000, 0.000000000000000000, 2.000000000000000888 ) ) ;
#275 = VECTOR ( 'NONE', #296, 1000.000000000000000 ) ;
#276 = CARTESIAN_POINT ( 'NONE',  ( 0.000000000000000000, 0.000000000000000000, -2.000000000000000000 ) ) ;
#277 = EDGE_LOOP ( 'NONE', ( #264, #49, #157, #193 ) ) ;
#278 = AXIS2_PLACEMENT_3D ( 'NONE', #281, #33, #247 ) ;
#279 = LINE ( 'NONE', #135, #118 ) ;
#280 = ORIENTED_EDGE ( 'NONE', *, *, #330, .T. ) ;
#281 = CARTESIAN_POINT ( 'NONE',  ( 0.000000000000000000, 0.000000000000000000, -1.574999999942658713 ) ) ;
#282 = ORIENTED_EDGE ( 'NONE', *, *, #104, .F. ) ;
#283 = EDGE_CURVE ( 'NONE', #309, #53, #324, .T. ) ;
#284 = LINE ( 'NONE', #36, #295 ) ;
#285 = ORIENTED_EDGE ( 'NONE', *, *, #5, .T. ) ;
#286 = EDGE_CURVE ( 'NONE', #256, #19, #210, .T. ) ;
#287 = VECTOR ( 'NONE', #220, 1000.000000000000114 ) ;
#288 = CARTESIAN_POINT ( 'NONE',  ( 5.000000000000000888, -7.500000000000000000, -2.000000000000000000 ) ) ;
#289 = ORIENTED_EDGE ( 'NONE', *, *, #227, .T. ) ;
#290 = AXIS2_PLACEMENT_3D ( 'NONE', #168, #62, #80 ) ;
#291 = EDGE_CURVE ( 'NONE', #216, #34, #9, .T. ) ;
#292 = CARTESIAN_POINT ( 'NONE',  ( 0.000000000000000000, 0.000000000000000000, 0.000000000000000000 ) ) ;
#293 =( LENGTH_UNIT ( ) NAMED_UNIT ( * ) SI_UNIT ( .MILLI., .METRE. ) );
#294 = VERTEX_POINT ( 'NONE', #123 ) ;
#295 = VECTOR ( 'NONE', #138, 1000.000000000000000 ) ;
#296 = DIRECTION ( 'NONE',  ( -0.000000000000000000, -0.000000000000000000, -1.000000000000000000 ) ) ;
#297 = DIRECTION ( 'NONE',  ( -8.673617379884035472E-17, 1.000000000000000000, 0.000000000000000000 ) ) ;
#298 = ORIENTED_EDGE ( 'NONE', *, *, #201, .T. ) ;
#299 = CARTESIAN_POINT ( 'NONE',  ( 2.099999999999987210, 2.571758278209426180E-16, -1.574999999942658713 ) ) ;
#300 = ADVANCED_FACE ( 'NONE', ( #205 ), #156, .F. ) ;
#301 = EDGE_LOOP ( 'NONE', ( #298, #172 ) ) ;
#302 = CARTESIAN_POINT ( 'NONE',  ( -4.999999999999999112, -7.500000000000001776, -2.000000000000000000 ) ) ;
#303 = STYLED_ITEM ( 'NONE', ( #164 ), #47 ) ;
#304 = EDGE_CURVE ( 'NONE', #361, #309, #18, .T. ) ;
#305 = DIRECTION ( 'NONE',  ( 1.000000000000000000, 0.000000000000000000, 0.000000000000000000 ) ) ;
#306 = LINE ( 'NONE', #142, #352 ) ;
#307 = ORIENTED_EDGE ( 'NONE', *, *, #286, .F. ) ;
#308 = CARTESIAN_POINT ( 'NONE',  ( 2.525000000057328720, 0.000000000000000000, 2.000000000000000888 ) ) ;
#309 = VERTEX_POINT ( 'NONE', #208 ) ;
#310 = PRESENTATION_LAYER_ASSIGNMENT (  '', '', ( #303 ) ) ;
#311 = DIRECTION ( 'NONE',  ( 0.000000000000000000, 0.000000000000000000, -1.000000000000000000 ) ) ;
#312 = ORIENTED_EDGE ( 'NONE', *, *, #304, .T. ) ;
#313 = DIRECTION ( 'NONE',  ( -1.000000000000000000, 0.000000000000000000, 0.000000000000000000 ) ) ;
#314 = EDGE_LOOP ( 'NONE', ( #307, #136, #244, #163 ) ) ;
#315 = VECTOR ( 'NONE', #219, 1000.000000000000000 ) ;
#316 = PLANE ( 'NONE',  #177 ) ;
#317 = ORIENTED_EDGE ( 'NONE', *, *, #227, .F. ) ;
#318 = ORIENTED_EDGE ( 'NONE', *, *, #214, .F. ) ;
#319 = EDGE_CURVE ( 'NONE', #361, #101, #154, .T. ) ;
#320 = VECTOR ( 'NONE', #323, 1000.000000000000114 ) ;
#321 = CARTESIAN_POINT ( 'NONE',  ( 0.000000000000000000, 0.000000000000000000, -2.000000000000000000 ) ) ;
#322 = CARTESIAN_POINT ( 'NONE',  ( 5.000000000000000888, 7.500000000000000000, 2.000000000000000888 ) ) ;
#323 = DIRECTION ( 'NONE',  ( -0.7071067810919738905, 0.000000000000000000, -0.7071067812811210329 ) ) ;
#324 = CIRCLE ( 'NONE', #55, 2.524999999943643658 ) ;
#325 = DIRECTION ( 'NONE',  ( -1.000000000000000000, 0.000000000000000000, 0.000000000000000000 ) ) ;
#326 = CONICAL_SURFACE ( 'NONE', #57, 2.525000000057328720, 0.7853981635311954035 ) ;
#327 =( NAMED_UNIT ( * ) PLANE_ANGLE_UNIT ( ) SI_UNIT ( $, .RADIAN. ) );
#328 = VERTEX_POINT ( 'NONE', #237 ) ;
#329 = DIRECTION ( 'NONE',  ( -1.000000000000000000, 0.000000000000000000, 0.000000000000000000 ) ) ;
#330 = EDGE_CURVE ( 'NONE', #146, #34, #152, .T. ) ;
#331 = CARTESIAN_POINT ( 'NONE',  ( 2.525000000057328720, 0.000000000000000000, 2.000000000000000888 ) ) ;
#332 = CIRCLE ( 'NONE', #290, 2.099999999999987210 ) ;
#333 = DIRECTION ( 'NONE',  ( 0.000000000000000000, 0.000000000000000000, -1.000000000000000000 ) ) ;
#334 = EDGE_LOOP ( 'NONE', ( #174, #251, #7, #187 ) ) ;
#335 = DIRECTION ( 'NONE',  ( -1.000000000000000000, 0.000000000000000000, 0.000000000000000000 ) ) ;
#336 = ORIENTED_EDGE ( 'NONE', *, *, #254, .F. ) ;
#337 = FACE_BOUND ( 'NONE', #113, .T. ) ;
#338 = EDGE_LOOP ( 'NONE', ( #76, #318, #141, #37 ) ) ;
#339 = DIRECTION ( 'NONE',  ( -1.000000000000000000, 0.000000000000000000, 0.000000000000000000 ) ) ;
#340 = CARTESIAN_POINT ( 'NONE',  ( -4.999999999999999112, 7.499999999999999112, 2.000000000000000888 ) ) ;
#341 = ORIENTED_EDGE ( 'NONE', *, *, #151, .F. ) ;
#342 = CARTESIAN_POINT ( 'NONE',  ( 5.000000000000000888, -7.500000000000000000, 2.000000000000000888 ) ) ;
#343 = VECTOR ( 'NONE', #270, 1000.000000000000000 ) ;
#344 = DIRECTION ( 'NONE',  ( -1.000000000000000000, -8.673617379884035472E-17, 0.000000000000000000 ) ) ;
#345 = ADVANCED_FACE ( 'NONE', ( #232 ), #326, .F. ) ;
#346 = CIRCLE ( 'NONE', #11, 2.525000000057328720 ) ;
#347 = CARTESIAN_POINT ( 'NONE',  ( 0.000000000000000000, 0.000000000000000000, 2.000000000000000888 ) ) ;
#348 = DIRECTION ( 'NONE',  ( -0.000000000000000000, -0.000000000000000000, -1.000000000000000000 ) ) ;
#349 = PLANE ( 'NONE',  #52 ) ;
#350 = DIRECTION ( 'NONE',  ( -0.000000000000000000, -0.000000000000000000, 1.000000000000000000 ) ) ;
#351 = CARTESIAN_POINT ( 'NONE',  ( -4.999999999999999112, -7.500000000000001776, 2.000000000000000888 ) ) ;
#352 = VECTOR ( 'NONE', #140, 1000.000000000000000 ) ;
#353 = EDGE_CURVE ( 'NONE', #19, #357, #147, .T. ) ;
#354 = DIRECTION ( 'NONE',  ( -1.000000000000000000, -1.734723475976807094E-16, 0.000000000000000000 ) ) ;
#355 = CARTESIAN_POINT ( 'NONE',  ( 0.000000000000000000, 0.000000000000000000, -2.000000000000000000 ) ) ;
#356 = DIRECTION ( 'NONE',  ( 1.000000000000000000, 1.734723475976807094E-16, 0.000000000000000000 ) ) ;
#357 = VERTEX_POINT ( 'NONE', #342 ) ;
#358 = LINE ( 'NONE', #171, #287 ) ;
#359 = ORIENTED_EDGE ( 'NONE', *, *, #283, .F. ) ;
#360 = DIRECTION ( 'NONE',  ( 0.000000000000000000, 0.000000000000000000, -1.000000000000000000 ) ) ;
#361 = VERTEX_POINT ( 'NONE', #97 ) ;
ENDSEC;
END-ISO-10303-21;
