ISO-10303-21;
HEADER;
/* Generated by software containing ST-Developer
 * from STEP Tools, Inc. (www.steptools.com) 
 */

FILE_DESCRIPTION(
/* description */ (''),
/* implementation_level */ '2;1');

FILE_NAME(
/* name */ '60x120 v2.step',
/* time_stamp */ '2024-07-29T23:35:08+02:00',
/* author */ (''),
/* organization */ (''),
/* preprocessor_version */ 'ST-DEVELOPER v20',
/* originating_system */ 'Autodesk Translation Framework v13.14.0.145',

/* authorisation */ '');

FILE_SCHEMA (('AUTOMOTIVE_DESIGN { 1 0 10303 214 3 1 1 }'));
ENDSEC;

DATA;
#10=MECHANICAL_DESIGN_GEOMETRIC_PRESENTATION_REPRESENTATION('',(#13),#479);
#11=SHAPE_REPRESENTATION_RELATIONSHIP('SRR','None',#486,#12);
#12=ADVANCED_BREP_SHAPE_REPRESENTATION('',(#14),#478);
#13=STYLED_ITEM('',(#495),#14);
#14=MANIFOLD_SOLID_BREP('Body1',#275);
#15=FACE_BOUND('',#50,.T.);
#16=FACE_BOUND('',#51,.T.);
#17=FACE_BOUND('',#52,.T.);
#18=FACE_BOUND('',#53,.T.);
#19=FACE_BOUND('',#61,.T.);
#20=FACE_BOUND('',#62,.T.);
#21=FACE_BOUND('',#63,.T.);
#22=FACE_BOUND('',#64,.T.);
#23=PLANE('',#304);
#24=PLANE('',#305);
#25=PLANE('',#311);
#26=PLANE('',#314);
#27=PLANE('',#317);
#28=PLANE('',#318);
#29=FACE_OUTER_BOUND('',#43,.T.);
#30=FACE_OUTER_BOUND('',#44,.T.);
#31=FACE_OUTER_BOUND('',#45,.T.);
#32=FACE_OUTER_BOUND('',#46,.T.);
#33=FACE_OUTER_BOUND('',#47,.T.);
#34=FACE_OUTER_BOUND('',#48,.T.);
#35=FACE_OUTER_BOUND('',#49,.T.);
#36=FACE_OUTER_BOUND('',#54,.T.);
#37=FACE_OUTER_BOUND('',#55,.T.);
#38=FACE_OUTER_BOUND('',#56,.T.);
#39=FACE_OUTER_BOUND('',#57,.T.);
#40=FACE_OUTER_BOUND('',#58,.T.);
#41=FACE_OUTER_BOUND('',#59,.T.);
#42=FACE_OUTER_BOUND('',#60,.T.);
#43=EDGE_LOOP('',(#181,#182,#183,#184));
#44=EDGE_LOOP('',(#185,#186,#187,#188));
#45=EDGE_LOOP('',(#189,#190,#191,#192));
#46=EDGE_LOOP('',(#193,#194,#195,#196));
#47=EDGE_LOOP('',(#197,#198,#199,#200));
#48=EDGE_LOOP('',(#201,#202,#203,#204));
#49=EDGE_LOOP('',(#205,#206,#207,#208,#209,#210,#211,#212));
#50=EDGE_LOOP('',(#213));
#51=EDGE_LOOP('',(#214));
#52=EDGE_LOOP('',(#215));
#53=EDGE_LOOP('',(#216));
#54=EDGE_LOOP('',(#217,#218,#219,#220));
#55=EDGE_LOOP('',(#221,#222,#223,#224));
#56=EDGE_LOOP('',(#225,#226,#227,#228));
#57=EDGE_LOOP('',(#229,#230,#231,#232));
#58=EDGE_LOOP('',(#233,#234,#235,#236));
#59=EDGE_LOOP('',(#237,#238,#239,#240));
#60=EDGE_LOOP('',(#241,#242,#243,#244,#245,#246,#247,#248));
#61=EDGE_LOOP('',(#249));
#62=EDGE_LOOP('',(#250));
#63=EDGE_LOOP('',(#251));
#64=EDGE_LOOP('',(#252));
#65=LINE('',#406,#85);
#66=LINE('',#412,#86);
#67=LINE('',#418,#87);
#68=LINE('',#424,#88);
#69=LINE('',#431,#89);
#70=LINE('',#434,#90);
#71=LINE('',#437,#91);
#72=LINE('',#439,#92);
#73=LINE('',#440,#93);
#74=LINE('',#443,#94);
#75=LINE('',#447,#95);
#76=LINE('',#451,#96);
#77=LINE('',#455,#97);
#78=LINE('',#459,#98);
#79=LINE('',#460,#99);
#80=LINE('',#463,#100);
#81=LINE('',#466,#101);
#82=LINE('',#468,#102);
#83=LINE('',#471,#103);
#84=LINE('',#474,#104);
#85=VECTOR('',#325,3.);
#86=VECTOR('',#332,3.);
#87=VECTOR('',#339,3.);
#88=VECTOR('',#346,3.);
#89=VECTOR('',#353,10.);
#90=VECTOR('',#356,10.);
#91=VECTOR('',#359,10.);
#92=VECTOR('',#360,10.);
#93=VECTOR('',#361,10.);
#94=VECTOR('',#364,10.);
#95=VECTOR('',#367,10.);
#96=VECTOR('',#370,10.);
#97=VECTOR('',#375,10.);
#98=VECTOR('',#380,10.);
#99=VECTOR('',#381,10.);
#100=VECTOR('',#384,10.);
#101=VECTOR('',#387,10.);
#102=VECTOR('',#390,10.);
#103=VECTOR('',#393,10.);
#104=VECTOR('',#398,10.);
#105=CIRCLE('',#290,3.);
#106=CIRCLE('',#291,3.);
#107=CIRCLE('',#293,3.);
#108=CIRCLE('',#294,3.);
#109=CIRCLE('',#296,3.);
#110=CIRCLE('',#297,3.);
#111=CIRCLE('',#299,3.);
#112=CIRCLE('',#300,3.);
#113=CIRCLE('',#302,3.);
#114=CIRCLE('',#303,3.);
#115=CIRCLE('',#306,3.);
#116=CIRCLE('',#307,3.);
#117=CIRCLE('',#308,3.);
#118=CIRCLE('',#310,3.);
#119=CIRCLE('',#313,3.);
#120=CIRCLE('',#316,3.);
#121=VERTEX_POINT('',#403);
#122=VERTEX_POINT('',#405);
#123=VERTEX_POINT('',#409);
#124=VERTEX_POINT('',#411);
#125=VERTEX_POINT('',#415);
#126=VERTEX_POINT('',#417);
#127=VERTEX_POINT('',#421);
#128=VERTEX_POINT('',#423);
#129=VERTEX_POINT('',#427);
#130=VERTEX_POINT('',#428);
#131=VERTEX_POINT('',#430);
#132=VERTEX_POINT('',#432);
#133=VERTEX_POINT('',#436);
#134=VERTEX_POINT('',#438);
#135=VERTEX_POINT('',#442);
#136=VERTEX_POINT('',#444);
#137=VERTEX_POINT('',#446);
#138=VERTEX_POINT('',#448);
#139=VERTEX_POINT('',#450);
#140=VERTEX_POINT('',#454);
#141=VERTEX_POINT('',#458);
#142=VERTEX_POINT('',#462);
#143=VERTEX_POINT('',#464);
#144=VERTEX_POINT('',#470);
#145=EDGE_CURVE('',#121,#121,#105,.T.);
#146=EDGE_CURVE('',#121,#122,#65,.T.);
#147=EDGE_CURVE('',#122,#122,#106,.T.);
#148=EDGE_CURVE('',#123,#123,#107,.T.);
#149=EDGE_CURVE('',#123,#124,#66,.T.);
#150=EDGE_CURVE('',#124,#124,#108,.T.);
#151=EDGE_CURVE('',#125,#125,#109,.T.);
#152=EDGE_CURVE('',#125,#126,#67,.T.);
#153=EDGE_CURVE('',#126,#126,#110,.T.);
#154=EDGE_CURVE('',#127,#127,#111,.T.);
#155=EDGE_CURVE('',#127,#128,#68,.T.);
#156=EDGE_CURVE('',#128,#128,#112,.T.);
#157=EDGE_CURVE('',#129,#130,#113,.T.);
#158=EDGE_CURVE('',#130,#131,#69,.T.);
#159=EDGE_CURVE('',#131,#132,#114,.T.);
#160=EDGE_CURVE('',#132,#129,#70,.T.);
#161=EDGE_CURVE('',#133,#130,#71,.T.);
#162=EDGE_CURVE('',#134,#133,#72,.T.);
#163=EDGE_CURVE('',#134,#131,#73,.T.);
#164=EDGE_CURVE('',#129,#135,#74,.T.);
#165=EDGE_CURVE('',#136,#135,#115,.T.);
#166=EDGE_CURVE('',#136,#137,#75,.T.);
#167=EDGE_CURVE('',#138,#137,#116,.T.);
#168=EDGE_CURVE('',#138,#139,#76,.T.);
#169=EDGE_CURVE('',#133,#139,#117,.T.);
#170=EDGE_CURVE('',#139,#140,#77,.T.);
#171=EDGE_CURVE('',#140,#134,#118,.T.);
#172=EDGE_CURVE('',#141,#138,#78,.T.);
#173=EDGE_CURVE('',#141,#140,#79,.T.);
#174=EDGE_CURVE('',#135,#142,#80,.T.);
#175=EDGE_CURVE('',#142,#143,#119,.T.);
#176=EDGE_CURVE('',#143,#136,#81,.T.);
#177=EDGE_CURVE('',#132,#142,#82,.T.);
#178=EDGE_CURVE('',#137,#144,#83,.T.);
#179=EDGE_CURVE('',#144,#141,#120,.T.);
#180=EDGE_CURVE('',#143,#144,#84,.T.);
#181=ORIENTED_EDGE('',*,*,#145,.F.);
#182=ORIENTED_EDGE('',*,*,#146,.T.);
#183=ORIENTED_EDGE('',*,*,#147,.F.);
#184=ORIENTED_EDGE('',*,*,#146,.F.);
#185=ORIENTED_EDGE('',*,*,#148,.F.);
#186=ORIENTED_EDGE('',*,*,#149,.T.);
#187=ORIENTED_EDGE('',*,*,#150,.F.);
#188=ORIENTED_EDGE('',*,*,#149,.F.);
#189=ORIENTED_EDGE('',*,*,#151,.F.);
#190=ORIENTED_EDGE('',*,*,#152,.T.);
#191=ORIENTED_EDGE('',*,*,#153,.F.);
#192=ORIENTED_EDGE('',*,*,#152,.F.);
#193=ORIENTED_EDGE('',*,*,#154,.F.);
#194=ORIENTED_EDGE('',*,*,#155,.T.);
#195=ORIENTED_EDGE('',*,*,#156,.F.);
#196=ORIENTED_EDGE('',*,*,#155,.F.);
#197=ORIENTED_EDGE('',*,*,#157,.T.);
#198=ORIENTED_EDGE('',*,*,#158,.T.);
#199=ORIENTED_EDGE('',*,*,#159,.T.);
#200=ORIENTED_EDGE('',*,*,#160,.T.);
#201=ORIENTED_EDGE('',*,*,#158,.F.);
#202=ORIENTED_EDGE('',*,*,#161,.F.);
#203=ORIENTED_EDGE('',*,*,#162,.F.);
#204=ORIENTED_EDGE('',*,*,#163,.T.);
#205=ORIENTED_EDGE('',*,*,#157,.F.);
#206=ORIENTED_EDGE('',*,*,#164,.T.);
#207=ORIENTED_EDGE('',*,*,#165,.F.);
#208=ORIENTED_EDGE('',*,*,#166,.T.);
#209=ORIENTED_EDGE('',*,*,#167,.F.);
#210=ORIENTED_EDGE('',*,*,#168,.T.);
#211=ORIENTED_EDGE('',*,*,#169,.F.);
#212=ORIENTED_EDGE('',*,*,#161,.T.);
#213=ORIENTED_EDGE('',*,*,#147,.T.);
#214=ORIENTED_EDGE('',*,*,#150,.T.);
#215=ORIENTED_EDGE('',*,*,#153,.T.);
#216=ORIENTED_EDGE('',*,*,#156,.T.);
#217=ORIENTED_EDGE('',*,*,#169,.T.);
#218=ORIENTED_EDGE('',*,*,#170,.T.);
#219=ORIENTED_EDGE('',*,*,#171,.T.);
#220=ORIENTED_EDGE('',*,*,#162,.T.);
#221=ORIENTED_EDGE('',*,*,#170,.F.);
#222=ORIENTED_EDGE('',*,*,#168,.F.);
#223=ORIENTED_EDGE('',*,*,#172,.F.);
#224=ORIENTED_EDGE('',*,*,#173,.T.);
#225=ORIENTED_EDGE('',*,*,#165,.T.);
#226=ORIENTED_EDGE('',*,*,#174,.T.);
#227=ORIENTED_EDGE('',*,*,#175,.T.);
#228=ORIENTED_EDGE('',*,*,#176,.T.);
#229=ORIENTED_EDGE('',*,*,#160,.F.);
#230=ORIENTED_EDGE('',*,*,#177,.T.);
#231=ORIENTED_EDGE('',*,*,#174,.F.);
#232=ORIENTED_EDGE('',*,*,#164,.F.);
#233=ORIENTED_EDGE('',*,*,#167,.T.);
#234=ORIENTED_EDGE('',*,*,#178,.T.);
#235=ORIENTED_EDGE('',*,*,#179,.T.);
#236=ORIENTED_EDGE('',*,*,#172,.T.);
#237=ORIENTED_EDGE('',*,*,#176,.F.);
#238=ORIENTED_EDGE('',*,*,#180,.T.);
#239=ORIENTED_EDGE('',*,*,#178,.F.);
#240=ORIENTED_EDGE('',*,*,#166,.F.);
#241=ORIENTED_EDGE('',*,*,#159,.F.);
#242=ORIENTED_EDGE('',*,*,#163,.F.);
#243=ORIENTED_EDGE('',*,*,#171,.F.);
#244=ORIENTED_EDGE('',*,*,#173,.F.);
#245=ORIENTED_EDGE('',*,*,#179,.F.);
#246=ORIENTED_EDGE('',*,*,#180,.F.);
#247=ORIENTED_EDGE('',*,*,#175,.F.);
#248=ORIENTED_EDGE('',*,*,#177,.F.);
#249=ORIENTED_EDGE('',*,*,#145,.T.);
#250=ORIENTED_EDGE('',*,*,#148,.T.);
#251=ORIENTED_EDGE('',*,*,#151,.T.);
#252=ORIENTED_EDGE('',*,*,#154,.T.);
#253=CYLINDRICAL_SURFACE('',#289,3.);
#254=CYLINDRICAL_SURFACE('',#292,3.);
#255=CYLINDRICAL_SURFACE('',#295,3.);
#256=CYLINDRICAL_SURFACE('',#298,3.);
#257=CYLINDRICAL_SURFACE('',#301,3.);
#258=CYLINDRICAL_SURFACE('',#309,3.);
#259=CYLINDRICAL_SURFACE('',#312,3.);
#260=CYLINDRICAL_SURFACE('',#315,3.);
#261=ADVANCED_FACE('',(#29),#253,.F.);
#262=ADVANCED_FACE('',(#30),#254,.F.);
#263=ADVANCED_FACE('',(#31),#255,.F.);
#264=ADVANCED_FACE('',(#32),#256,.F.);
#265=ADVANCED_FACE('',(#33),#257,.T.);
#266=ADVANCED_FACE('',(#34),#23,.T.);
#267=ADVANCED_FACE('',(#35,#15,#16,#17,#18),#24,.T.);
#268=ADVANCED_FACE('',(#36),#258,.T.);
#269=ADVANCED_FACE('',(#37),#25,.T.);
#270=ADVANCED_FACE('',(#38),#259,.T.);
#271=ADVANCED_FACE('',(#39),#26,.T.);
#272=ADVANCED_FACE('',(#40),#260,.T.);
#273=ADVANCED_FACE('',(#41),#27,.T.);
#274=ADVANCED_FACE('',(#42,#19,#20,#21,#22),#28,.T.);
#275=CLOSED_SHELL('',(#261,#262,#263,#264,#265,#266,#267,#268,#269,#270,
#271,#272,#273,#274));
#276=DERIVED_UNIT_ELEMENT(#278,1.);
#277=DERIVED_UNIT_ELEMENT(#481,-3.);
#278=(
MASS_UNIT()
NAMED_UNIT(*)
SI_UNIT(.KILO.,.GRAM.)
);
#279=DERIVED_UNIT((#276,#277));
#280=MEASURE_REPRESENTATION_ITEM('density measure',
POSITIVE_RATIO_MEASURE(7850.),#279);
#281=PROPERTY_DEFINITION_REPRESENTATION(#286,#283);
#282=PROPERTY_DEFINITION_REPRESENTATION(#287,#284);
#283=REPRESENTATION('material name',(#285),#478);
#284=REPRESENTATION('density',(#280),#478);
#285=DESCRIPTIVE_REPRESENTATION_ITEM('Steel','Steel');
#286=PROPERTY_DEFINITION('material property','material name',#488);
#287=PROPERTY_DEFINITION('material property','density of part',#488);
#288=AXIS2_PLACEMENT_3D('',#401,#319,#320);
#289=AXIS2_PLACEMENT_3D('',#402,#321,#322);
#290=AXIS2_PLACEMENT_3D('',#404,#323,#324);
#291=AXIS2_PLACEMENT_3D('',#407,#326,#327);
#292=AXIS2_PLACEMENT_3D('',#408,#328,#329);
#293=AXIS2_PLACEMENT_3D('',#410,#330,#331);
#294=AXIS2_PLACEMENT_3D('',#413,#333,#334);
#295=AXIS2_PLACEMENT_3D('',#414,#335,#336);
#296=AXIS2_PLACEMENT_3D('',#416,#337,#338);
#297=AXIS2_PLACEMENT_3D('',#419,#340,#341);
#298=AXIS2_PLACEMENT_3D('',#420,#342,#343);
#299=AXIS2_PLACEMENT_3D('',#422,#344,#345);
#300=AXIS2_PLACEMENT_3D('',#425,#347,#348);
#301=AXIS2_PLACEMENT_3D('',#426,#349,#350);
#302=AXIS2_PLACEMENT_3D('',#429,#351,#352);
#303=AXIS2_PLACEMENT_3D('',#433,#354,#355);
#304=AXIS2_PLACEMENT_3D('',#435,#357,#358);
#305=AXIS2_PLACEMENT_3D('',#441,#362,#363);
#306=AXIS2_PLACEMENT_3D('',#445,#365,#366);
#307=AXIS2_PLACEMENT_3D('',#449,#368,#369);
#308=AXIS2_PLACEMENT_3D('',#452,#371,#372);
#309=AXIS2_PLACEMENT_3D('',#453,#373,#374);
#310=AXIS2_PLACEMENT_3D('',#456,#376,#377);
#311=AXIS2_PLACEMENT_3D('',#457,#378,#379);
#312=AXIS2_PLACEMENT_3D('',#461,#382,#383);
#313=AXIS2_PLACEMENT_3D('',#465,#385,#386);
#314=AXIS2_PLACEMENT_3D('',#467,#388,#389);
#315=AXIS2_PLACEMENT_3D('',#469,#391,#392);
#316=AXIS2_PLACEMENT_3D('',#472,#394,#395);
#317=AXIS2_PLACEMENT_3D('',#473,#396,#397);
#318=AXIS2_PLACEMENT_3D('',#475,#399,#400);
#319=DIRECTION('axis',(0.,0.,1.));
#320=DIRECTION('refdir',(1.,0.,0.));
#321=DIRECTION('center_axis',(0.,-1.,0.));
#322=DIRECTION('ref_axis',(0.,0.,1.));
#323=DIRECTION('center_axis',(0.,-1.,0.));
#324=DIRECTION('ref_axis',(0.,0.,1.));
#325=DIRECTION('',(0.,-1.,0.));
#326=DIRECTION('center_axis',(0.,1.,0.));
#327=DIRECTION('ref_axis',(0.,0.,1.));
#328=DIRECTION('center_axis',(0.,-1.,0.));
#329=DIRECTION('ref_axis',(0.,0.,1.));
#330=DIRECTION('center_axis',(0.,-1.,0.));
#331=DIRECTION('ref_axis',(0.,0.,1.));
#332=DIRECTION('',(0.,-1.,0.));
#333=DIRECTION('center_axis',(0.,1.,0.));
#334=DIRECTION('ref_axis',(0.,0.,1.));
#335=DIRECTION('center_axis',(0.,-1.,0.));
#336=DIRECTION('ref_axis',(0.,0.,1.));
#337=DIRECTION('center_axis',(0.,-1.,0.));
#338=DIRECTION('ref_axis',(0.,0.,1.));
#339=DIRECTION('',(0.,-1.,0.));
#340=DIRECTION('center_axis',(0.,1.,0.));
#341=DIRECTION('ref_axis',(0.,0.,1.));
#342=DIRECTION('center_axis',(0.,-1.,0.));
#343=DIRECTION('ref_axis',(0.,0.,1.));
#344=DIRECTION('center_axis',(0.,-1.,0.));
#345=DIRECTION('ref_axis',(0.,0.,1.));
#346=DIRECTION('',(0.,-1.,0.));
#347=DIRECTION('center_axis',(0.,1.,0.));
#348=DIRECTION('ref_axis',(0.,0.,1.));
#349=DIRECTION('center_axis',(0.,-1.,0.));
#350=DIRECTION('ref_axis',(-0.707106781186549,0.,-0.707106781186546));
#351=DIRECTION('center_axis',(0.,1.,0.));
#352=DIRECTION('ref_axis',(-0.707106781186549,0.,-0.707106781186546));
#353=DIRECTION('',(0.,1.,0.));
#354=DIRECTION('center_axis',(0.,-1.,0.));
#355=DIRECTION('ref_axis',(-0.707106781186549,0.,-0.707106781186546));
#356=DIRECTION('',(0.,-1.,0.));
#357=DIRECTION('center_axis',(-1.,0.,0.));
#358=DIRECTION('ref_axis',(0.,0.,-1.));
#359=DIRECTION('',(0.,0.,-1.));
#360=DIRECTION('',(0.,-1.,0.));
#361=DIRECTION('',(0.,0.,-1.));
#362=DIRECTION('center_axis',(0.,-1.,0.));
#363=DIRECTION('ref_axis',(0.,0.,-1.));
#364=DIRECTION('',(1.,0.,0.));
#365=DIRECTION('center_axis',(0.,1.,0.));
#366=DIRECTION('ref_axis',(0.707106781186549,0.,-0.707106781186546));
#367=DIRECTION('',(0.,0.,1.));
#368=DIRECTION('center_axis',(0.,1.,0.));
#369=DIRECTION('ref_axis',(0.707106781186549,0.,0.707106781186546));
#370=DIRECTION('',(-1.,0.,0.));
#371=DIRECTION('center_axis',(0.,1.,0.));
#372=DIRECTION('ref_axis',(-0.707106781186549,0.,0.707106781186546));
#373=DIRECTION('center_axis',(0.,-1.,0.));
#374=DIRECTION('ref_axis',(-0.707106781186549,0.,0.707106781186546));
#375=DIRECTION('',(0.,1.,0.));
#376=DIRECTION('center_axis',(0.,-1.,0.));
#377=DIRECTION('ref_axis',(-0.707106781186549,0.,0.707106781186546));
#378=DIRECTION('center_axis',(0.,0.,1.));
#379=DIRECTION('ref_axis',(-1.,0.,0.));
#380=DIRECTION('',(0.,-1.,0.));
#381=DIRECTION('',(-1.,0.,0.));
#382=DIRECTION('center_axis',(0.,-1.,0.));
#383=DIRECTION('ref_axis',(0.707106781186549,0.,-0.707106781186546));
#384=DIRECTION('',(0.,1.,0.));
#385=DIRECTION('center_axis',(0.,-1.,0.));
#386=DIRECTION('ref_axis',(0.707106781186549,0.,-0.707106781186546));
#387=DIRECTION('',(0.,-1.,0.));
#388=DIRECTION('center_axis',(0.,0.,-1.));
#389=DIRECTION('ref_axis',(1.,0.,0.));
#390=DIRECTION('',(1.,0.,0.));
#391=DIRECTION('center_axis',(0.,-1.,0.));
#392=DIRECTION('ref_axis',(0.707106781186549,0.,0.707106781186546));
#393=DIRECTION('',(0.,1.,0.));
#394=DIRECTION('center_axis',(0.,-1.,0.));
#395=DIRECTION('ref_axis',(0.707106781186549,0.,0.707106781186546));
#396=DIRECTION('center_axis',(1.,0.,0.));
#397=DIRECTION('ref_axis',(0.,0.,1.));
#398=DIRECTION('',(0.,0.,1.));
#399=DIRECTION('center_axis',(0.,1.,0.));
#400=DIRECTION('ref_axis',(1.,0.,0.));
#401=CARTESIAN_POINT('',(0.,0.,0.));
#402=CARTESIAN_POINT('Origin',(-40.,-1.1,-25.));
#403=CARTESIAN_POINT('',(-40.,0.,-28.));
#404=CARTESIAN_POINT('Origin',(-40.,0.,-25.));
#405=CARTESIAN_POINT('',(-40.,-2.,-28.));
#406=CARTESIAN_POINT('',(-40.,-1.1,-28.));
#407=CARTESIAN_POINT('Origin',(-40.,-2.,-25.));
#408=CARTESIAN_POINT('Origin',(-55.,-1.1,25.));
#409=CARTESIAN_POINT('',(-55.,0.,22.));
#410=CARTESIAN_POINT('Origin',(-55.,0.,25.));
#411=CARTESIAN_POINT('',(-55.,-2.,22.));
#412=CARTESIAN_POINT('',(-55.,-1.1,22.));
#413=CARTESIAN_POINT('Origin',(-55.,-2.,25.));
#414=CARTESIAN_POINT('Origin',(55.,-1.1,25.));
#415=CARTESIAN_POINT('',(55.,0.,22.));
#416=CARTESIAN_POINT('Origin',(55.,0.,25.));
#417=CARTESIAN_POINT('',(55.,-2.,22.));
#418=CARTESIAN_POINT('',(55.,-1.1,22.));
#419=CARTESIAN_POINT('Origin',(55.,-2.,25.));
#420=CARTESIAN_POINT('Origin',(40.,-1.1,-25.));
#421=CARTESIAN_POINT('',(40.,0.,-28.));
#422=CARTESIAN_POINT('Origin',(40.,0.,-25.));
#423=CARTESIAN_POINT('',(40.,-2.,-28.));
#424=CARTESIAN_POINT('',(40.,-1.1,-28.));
#425=CARTESIAN_POINT('Origin',(40.,-2.,-25.));
#426=CARTESIAN_POINT('Origin',(-57.,0.,-27.));
#427=CARTESIAN_POINT('',(-57.,-2.,-30.));
#428=CARTESIAN_POINT('',(-60.,-2.,-27.));
#429=CARTESIAN_POINT('Origin',(-57.,-2.,-27.));
#430=CARTESIAN_POINT('',(-60.,0.,-27.));
#431=CARTESIAN_POINT('',(-60.,0.,-27.));
#432=CARTESIAN_POINT('',(-57.,0.,-30.));
#433=CARTESIAN_POINT('Origin',(-57.,0.,-27.));
#434=CARTESIAN_POINT('',(-57.,0.,-30.));
#435=CARTESIAN_POINT('Origin',(-60.,0.,30.));
#436=CARTESIAN_POINT('',(-60.,-2.,27.));
#437=CARTESIAN_POINT('',(-60.,-2.,30.));
#438=CARTESIAN_POINT('',(-60.,0.,27.));
#439=CARTESIAN_POINT('',(-60.,0.,27.));
#440=CARTESIAN_POINT('',(-60.,0.,30.));
#441=CARTESIAN_POINT('Origin',(0.,-2.,0.));
#442=CARTESIAN_POINT('',(57.,-2.,-30.));
#443=CARTESIAN_POINT('',(-60.,-2.,-30.));
#444=CARTESIAN_POINT('',(60.,-2.,-27.));
#445=CARTESIAN_POINT('Origin',(57.,-2.,-27.));
#446=CARTESIAN_POINT('',(60.,-2.,27.));
#447=CARTESIAN_POINT('',(60.,-2.,-30.));
#448=CARTESIAN_POINT('',(57.,-2.,30.));
#449=CARTESIAN_POINT('Origin',(57.,-2.,27.));
#450=CARTESIAN_POINT('',(-57.,-2.,30.));
#451=CARTESIAN_POINT('',(60.,-2.,30.));
#452=CARTESIAN_POINT('Origin',(-57.,-2.,27.));
#453=CARTESIAN_POINT('Origin',(-57.,0.,27.));
#454=CARTESIAN_POINT('',(-57.,0.,30.));
#455=CARTESIAN_POINT('',(-57.,0.,30.));
#456=CARTESIAN_POINT('Origin',(-57.,0.,27.));
#457=CARTESIAN_POINT('Origin',(60.,0.,30.));
#458=CARTESIAN_POINT('',(57.,0.,30.));
#459=CARTESIAN_POINT('',(57.,0.,30.));
#460=CARTESIAN_POINT('',(60.,0.,30.));
#461=CARTESIAN_POINT('Origin',(57.,0.,-27.));
#462=CARTESIAN_POINT('',(57.,0.,-30.));
#463=CARTESIAN_POINT('',(57.,0.,-30.));
#464=CARTESIAN_POINT('',(60.,0.,-27.));
#465=CARTESIAN_POINT('Origin',(57.,0.,-27.));
#466=CARTESIAN_POINT('',(60.,0.,-27.));
#467=CARTESIAN_POINT('Origin',(-60.,0.,-30.));
#468=CARTESIAN_POINT('',(-60.,0.,-30.));
#469=CARTESIAN_POINT('Origin',(57.,0.,27.));
#470=CARTESIAN_POINT('',(60.,0.,27.));
#471=CARTESIAN_POINT('',(60.,0.,27.));
#472=CARTESIAN_POINT('Origin',(57.,0.,27.));
#473=CARTESIAN_POINT('Origin',(60.,0.,-30.));
#474=CARTESIAN_POINT('',(60.,0.,-30.));
#475=CARTESIAN_POINT('Origin',(0.,0.,0.));
#476=UNCERTAINTY_MEASURE_WITH_UNIT(LENGTH_MEASURE(0.01),#480,
'DISTANCE_ACCURACY_VALUE',
'Maximum model space distance between geometric entities at asserted c
onnectivities');
#477=UNCERTAINTY_MEASURE_WITH_UNIT(LENGTH_MEASURE(0.01),#480,
'DISTANCE_ACCURACY_VALUE',
'Maximum model space distance between geometric entities at asserted c
onnectivities');
#478=(
GEOMETRIC_REPRESENTATION_CONTEXT(3)
GLOBAL_UNCERTAINTY_ASSIGNED_CONTEXT((#476))
GLOBAL_UNIT_ASSIGNED_CONTEXT((#480,#482,#483))
REPRESENTATION_CONTEXT('','3D')
);
#479=(
GEOMETRIC_REPRESENTATION_CONTEXT(3)
GLOBAL_UNCERTAINTY_ASSIGNED_CONTEXT((#477))
GLOBAL_UNIT_ASSIGNED_CONTEXT((#480,#482,#483))
REPRESENTATION_CONTEXT('','3D')
);
#480=(
LENGTH_UNIT()
NAMED_UNIT(*)
SI_UNIT(.MILLI.,.METRE.)
);
#481=(
LENGTH_UNIT()
NAMED_UNIT(*)
SI_UNIT($,.METRE.)
);
#482=(
NAMED_UNIT(*)
PLANE_ANGLE_UNIT()
SI_UNIT($,.RADIAN.)
);
#483=(
NAMED_UNIT(*)
SI_UNIT($,.STERADIAN.)
SOLID_ANGLE_UNIT()
);
#484=SHAPE_DEFINITION_REPRESENTATION(#485,#486);
#485=PRODUCT_DEFINITION_SHAPE('',$,#488);
#486=SHAPE_REPRESENTATION('',(#288),#478);
#487=PRODUCT_DEFINITION_CONTEXT('part definition',#492,'design');
#488=PRODUCT_DEFINITION('60x120','60x120 v2',#489,#487);
#489=PRODUCT_DEFINITION_FORMATION('',$,#494);
#490=PRODUCT_RELATED_PRODUCT_CATEGORY('60x120 v2','60x120 v2',(#494));
#491=APPLICATION_PROTOCOL_DEFINITION('international standard',
'automotive_design',2009,#492);
#492=APPLICATION_CONTEXT(
'Core Data for Automotive Mechanical Design Process');
#493=PRODUCT_CONTEXT('part definition',#492,'mechanical');
#494=PRODUCT('60x120','60x120 v2',$,(#493));
#495=PRESENTATION_STYLE_ASSIGNMENT((#496));
#496=SURFACE_STYLE_USAGE(.BOTH.,#497);
#497=SURFACE_SIDE_STYLE('',(#498));
#498=SURFACE_STYLE_FILL_AREA(#499);
#499=FILL_AREA_STYLE('Steel - Satin',(#500));
#500=FILL_AREA_STYLE_COLOUR('Steel - Satin',#501);
#501=COLOUR_RGB('Steel - Satin',0.627450980392157,0.627450980392157,0.627450980392157);
ENDSEC;
END-ISO-10303-21;
