ISO-10303-21;
HEADER;
/* Generated by software containing ST-Developer
 * from STEP Tools, Inc. (www.steptools.com) 
 */

FILE_DESCRIPTION(
/* description */ (''),
/* implementation_level */ '2;1');

FILE_NAME(
/* name */ '40x40 v3.step',
/* time_stamp */ '2024-07-29T23:35:37+02:00',
/* author */ (''),
/* organization */ (''),
/* preprocessor_version */ 'ST-DEVELOPER v20',
/* originating_system */ 'Autodesk Translation Framework v13.14.0.145',

/* authorisation */ '');

FILE_SCHEMA (('AUTOMOTIVE_DESIGN { 1 0 10303 214 3 1 1 }'));
ENDSEC;

DATA;
#10=MECHANICAL_DESIGN_GEOMETRIC_PRESENTATION_REPRESENTATION('',(#13),#440);
#11=SHAPE_REPRESENTATION_RELATIONSHIP('SRR','None',#447,#12);
#12=ADVANCED_BREP_SHAPE_REPRESENTATION('',(#14),#439);
#13=STYLED_ITEM('',(#456),#14);
#14=MANIFOLD_SOLID_BREP('Body1',#252);
#15=FACE_BOUND('',#46,.T.);
#16=FACE_BOUND('',#47,.T.);
#17=FACE_BOUND('',#48,.T.);
#18=FACE_BOUND('',#56,.T.);
#19=FACE_BOUND('',#57,.T.);
#20=FACE_BOUND('',#58,.T.);
#21=PLANE('',#278);
#22=PLANE('',#279);
#23=PLANE('',#285);
#24=PLANE('',#288);
#25=PLANE('',#291);
#26=PLANE('',#292);
#27=FACE_OUTER_BOUND('',#40,.T.);
#28=FACE_OUTER_BOUND('',#41,.T.);
#29=FACE_OUTER_BOUND('',#42,.T.);
#30=FACE_OUTER_BOUND('',#43,.T.);
#31=FACE_OUTER_BOUND('',#44,.T.);
#32=FACE_OUTER_BOUND('',#45,.T.);
#33=FACE_OUTER_BOUND('',#49,.T.);
#34=FACE_OUTER_BOUND('',#50,.T.);
#35=FACE_OUTER_BOUND('',#51,.T.);
#36=FACE_OUTER_BOUND('',#52,.T.);
#37=FACE_OUTER_BOUND('',#53,.T.);
#38=FACE_OUTER_BOUND('',#54,.T.);
#39=FACE_OUTER_BOUND('',#55,.T.);
#40=EDGE_LOOP('',(#166,#167,#168,#169));
#41=EDGE_LOOP('',(#170,#171,#172,#173));
#42=EDGE_LOOP('',(#174,#175,#176,#177));
#43=EDGE_LOOP('',(#178,#179,#180,#181));
#44=EDGE_LOOP('',(#182,#183,#184,#185));
#45=EDGE_LOOP('',(#186,#187,#188,#189,#190,#191,#192,#193));
#46=EDGE_LOOP('',(#194));
#47=EDGE_LOOP('',(#195));
#48=EDGE_LOOP('',(#196));
#49=EDGE_LOOP('',(#197,#198,#199,#200));
#50=EDGE_LOOP('',(#201,#202,#203,#204));
#51=EDGE_LOOP('',(#205,#206,#207,#208));
#52=EDGE_LOOP('',(#209,#210,#211,#212));
#53=EDGE_LOOP('',(#213,#214,#215,#216));
#54=EDGE_LOOP('',(#217,#218,#219,#220));
#55=EDGE_LOOP('',(#221,#222,#223,#224,#225,#226,#227,#228));
#56=EDGE_LOOP('',(#229));
#57=EDGE_LOOP('',(#230));
#58=EDGE_LOOP('',(#231));
#59=LINE('',#373,#78);
#60=LINE('',#379,#79);
#61=LINE('',#385,#80);
#62=LINE('',#392,#81);
#63=LINE('',#395,#82);
#64=LINE('',#398,#83);
#65=LINE('',#400,#84);
#66=LINE('',#401,#85);
#67=LINE('',#404,#86);
#68=LINE('',#408,#87);
#69=LINE('',#412,#88);
#70=LINE('',#416,#89);
#71=LINE('',#420,#90);
#72=LINE('',#421,#91);
#73=LINE('',#424,#92);
#74=LINE('',#427,#93);
#75=LINE('',#429,#94);
#76=LINE('',#432,#95);
#77=LINE('',#435,#96);
#78=VECTOR('',#299,2.5);
#79=VECTOR('',#306,2.5);
#80=VECTOR('',#313,2.5);
#81=VECTOR('',#320,10.);
#82=VECTOR('',#323,10.);
#83=VECTOR('',#326,10.);
#84=VECTOR('',#327,10.);
#85=VECTOR('',#328,10.);
#86=VECTOR('',#331,10.);
#87=VECTOR('',#334,10.);
#88=VECTOR('',#337,10.);
#89=VECTOR('',#342,10.);
#90=VECTOR('',#347,10.);
#91=VECTOR('',#348,10.);
#92=VECTOR('',#351,10.);
#93=VECTOR('',#354,10.);
#94=VECTOR('',#357,10.);
#95=VECTOR('',#360,10.);
#96=VECTOR('',#365,10.);
#97=CIRCLE('',#267,2.5);
#98=CIRCLE('',#268,2.5);
#99=CIRCLE('',#270,2.5);
#100=CIRCLE('',#271,2.5);
#101=CIRCLE('',#273,2.5);
#102=CIRCLE('',#274,2.5);
#103=CIRCLE('',#276,2.);
#104=CIRCLE('',#277,2.);
#105=CIRCLE('',#280,2.);
#106=CIRCLE('',#281,2.);
#107=CIRCLE('',#282,2.);
#108=CIRCLE('',#284,2.);
#109=CIRCLE('',#287,2.);
#110=CIRCLE('',#290,2.);
#111=VERTEX_POINT('',#370);
#112=VERTEX_POINT('',#372);
#113=VERTEX_POINT('',#376);
#114=VERTEX_POINT('',#378);
#115=VERTEX_POINT('',#382);
#116=VERTEX_POINT('',#384);
#117=VERTEX_POINT('',#388);
#118=VERTEX_POINT('',#389);
#119=VERTEX_POINT('',#391);
#120=VERTEX_POINT('',#393);
#121=VERTEX_POINT('',#397);
#122=VERTEX_POINT('',#399);
#123=VERTEX_POINT('',#403);
#124=VERTEX_POINT('',#405);
#125=VERTEX_POINT('',#407);
#126=VERTEX_POINT('',#409);
#127=VERTEX_POINT('',#411);
#128=VERTEX_POINT('',#415);
#129=VERTEX_POINT('',#419);
#130=VERTEX_POINT('',#423);
#131=VERTEX_POINT('',#425);
#132=VERTEX_POINT('',#431);
#133=EDGE_CURVE('',#111,#111,#97,.T.);
#134=EDGE_CURVE('',#111,#112,#59,.T.);
#135=EDGE_CURVE('',#112,#112,#98,.T.);
#136=EDGE_CURVE('',#113,#113,#99,.T.);
#137=EDGE_CURVE('',#113,#114,#60,.T.);
#138=EDGE_CURVE('',#114,#114,#100,.T.);
#139=EDGE_CURVE('',#115,#115,#101,.T.);
#140=EDGE_CURVE('',#115,#116,#61,.T.);
#141=EDGE_CURVE('',#116,#116,#102,.T.);
#142=EDGE_CURVE('',#117,#118,#103,.T.);
#143=EDGE_CURVE('',#118,#119,#62,.T.);
#144=EDGE_CURVE('',#119,#120,#104,.T.);
#145=EDGE_CURVE('',#120,#117,#63,.T.);
#146=EDGE_CURVE('',#121,#118,#64,.T.);
#147=EDGE_CURVE('',#122,#121,#65,.T.);
#148=EDGE_CURVE('',#122,#119,#66,.T.);
#149=EDGE_CURVE('',#117,#123,#67,.T.);
#150=EDGE_CURVE('',#124,#123,#105,.T.);
#151=EDGE_CURVE('',#124,#125,#68,.T.);
#152=EDGE_CURVE('',#126,#125,#106,.T.);
#153=EDGE_CURVE('',#126,#127,#69,.T.);
#154=EDGE_CURVE('',#121,#127,#107,.T.);
#155=EDGE_CURVE('',#127,#128,#70,.T.);
#156=EDGE_CURVE('',#128,#122,#108,.T.);
#157=EDGE_CURVE('',#129,#126,#71,.T.);
#158=EDGE_CURVE('',#129,#128,#72,.T.);
#159=EDGE_CURVE('',#123,#130,#73,.T.);
#160=EDGE_CURVE('',#130,#131,#109,.T.);
#161=EDGE_CURVE('',#131,#124,#74,.T.);
#162=EDGE_CURVE('',#120,#130,#75,.T.);
#163=EDGE_CURVE('',#125,#132,#76,.T.);
#164=EDGE_CURVE('',#132,#129,#110,.T.);
#165=EDGE_CURVE('',#131,#132,#77,.T.);
#166=ORIENTED_EDGE('',*,*,#133,.F.);
#167=ORIENTED_EDGE('',*,*,#134,.T.);
#168=ORIENTED_EDGE('',*,*,#135,.F.);
#169=ORIENTED_EDGE('',*,*,#134,.F.);
#170=ORIENTED_EDGE('',*,*,#136,.F.);
#171=ORIENTED_EDGE('',*,*,#137,.T.);
#172=ORIENTED_EDGE('',*,*,#138,.F.);
#173=ORIENTED_EDGE('',*,*,#137,.F.);
#174=ORIENTED_EDGE('',*,*,#139,.F.);
#175=ORIENTED_EDGE('',*,*,#140,.T.);
#176=ORIENTED_EDGE('',*,*,#141,.F.);
#177=ORIENTED_EDGE('',*,*,#140,.F.);
#178=ORIENTED_EDGE('',*,*,#142,.T.);
#179=ORIENTED_EDGE('',*,*,#143,.T.);
#180=ORIENTED_EDGE('',*,*,#144,.T.);
#181=ORIENTED_EDGE('',*,*,#145,.T.);
#182=ORIENTED_EDGE('',*,*,#143,.F.);
#183=ORIENTED_EDGE('',*,*,#146,.F.);
#184=ORIENTED_EDGE('',*,*,#147,.F.);
#185=ORIENTED_EDGE('',*,*,#148,.T.);
#186=ORIENTED_EDGE('',*,*,#142,.F.);
#187=ORIENTED_EDGE('',*,*,#149,.T.);
#188=ORIENTED_EDGE('',*,*,#150,.F.);
#189=ORIENTED_EDGE('',*,*,#151,.T.);
#190=ORIENTED_EDGE('',*,*,#152,.F.);
#191=ORIENTED_EDGE('',*,*,#153,.T.);
#192=ORIENTED_EDGE('',*,*,#154,.F.);
#193=ORIENTED_EDGE('',*,*,#146,.T.);
#194=ORIENTED_EDGE('',*,*,#135,.T.);
#195=ORIENTED_EDGE('',*,*,#138,.T.);
#196=ORIENTED_EDGE('',*,*,#141,.T.);
#197=ORIENTED_EDGE('',*,*,#154,.T.);
#198=ORIENTED_EDGE('',*,*,#155,.T.);
#199=ORIENTED_EDGE('',*,*,#156,.T.);
#200=ORIENTED_EDGE('',*,*,#147,.T.);
#201=ORIENTED_EDGE('',*,*,#155,.F.);
#202=ORIENTED_EDGE('',*,*,#153,.F.);
#203=ORIENTED_EDGE('',*,*,#157,.F.);
#204=ORIENTED_EDGE('',*,*,#158,.T.);
#205=ORIENTED_EDGE('',*,*,#150,.T.);
#206=ORIENTED_EDGE('',*,*,#159,.T.);
#207=ORIENTED_EDGE('',*,*,#160,.T.);
#208=ORIENTED_EDGE('',*,*,#161,.T.);
#209=ORIENTED_EDGE('',*,*,#145,.F.);
#210=ORIENTED_EDGE('',*,*,#162,.T.);
#211=ORIENTED_EDGE('',*,*,#159,.F.);
#212=ORIENTED_EDGE('',*,*,#149,.F.);
#213=ORIENTED_EDGE('',*,*,#152,.T.);
#214=ORIENTED_EDGE('',*,*,#163,.T.);
#215=ORIENTED_EDGE('',*,*,#164,.T.);
#216=ORIENTED_EDGE('',*,*,#157,.T.);
#217=ORIENTED_EDGE('',*,*,#161,.F.);
#218=ORIENTED_EDGE('',*,*,#165,.T.);
#219=ORIENTED_EDGE('',*,*,#163,.F.);
#220=ORIENTED_EDGE('',*,*,#151,.F.);
#221=ORIENTED_EDGE('',*,*,#144,.F.);
#222=ORIENTED_EDGE('',*,*,#148,.F.);
#223=ORIENTED_EDGE('',*,*,#156,.F.);
#224=ORIENTED_EDGE('',*,*,#158,.F.);
#225=ORIENTED_EDGE('',*,*,#164,.F.);
#226=ORIENTED_EDGE('',*,*,#165,.F.);
#227=ORIENTED_EDGE('',*,*,#160,.F.);
#228=ORIENTED_EDGE('',*,*,#162,.F.);
#229=ORIENTED_EDGE('',*,*,#133,.T.);
#230=ORIENTED_EDGE('',*,*,#136,.T.);
#231=ORIENTED_EDGE('',*,*,#139,.T.);
#232=CYLINDRICAL_SURFACE('',#266,2.5);
#233=CYLINDRICAL_SURFACE('',#269,2.5);
#234=CYLINDRICAL_SURFACE('',#272,2.5);
#235=CYLINDRICAL_SURFACE('',#275,2.);
#236=CYLINDRICAL_SURFACE('',#283,2.);
#237=CYLINDRICAL_SURFACE('',#286,2.);
#238=CYLINDRICAL_SURFACE('',#289,2.);
#239=ADVANCED_FACE('',(#27),#232,.F.);
#240=ADVANCED_FACE('',(#28),#233,.F.);
#241=ADVANCED_FACE('',(#29),#234,.F.);
#242=ADVANCED_FACE('',(#30),#235,.T.);
#243=ADVANCED_FACE('',(#31),#21,.T.);
#244=ADVANCED_FACE('',(#32,#15,#16,#17),#22,.T.);
#245=ADVANCED_FACE('',(#33),#236,.T.);
#246=ADVANCED_FACE('',(#34),#23,.T.);
#247=ADVANCED_FACE('',(#35),#237,.T.);
#248=ADVANCED_FACE('',(#36),#24,.T.);
#249=ADVANCED_FACE('',(#37),#238,.T.);
#250=ADVANCED_FACE('',(#38),#25,.T.);
#251=ADVANCED_FACE('',(#39,#18,#19,#20),#26,.T.);
#252=CLOSED_SHELL('',(#239,#240,#241,#242,#243,#244,#245,#246,#247,#248,
#249,#250,#251));
#253=DERIVED_UNIT_ELEMENT(#255,1.);
#254=DERIVED_UNIT_ELEMENT(#442,-3.);
#255=(
MASS_UNIT()
NAMED_UNIT(*)
SI_UNIT(.KILO.,.GRAM.)
);
#256=DERIVED_UNIT((#253,#254));
#257=MEASURE_REPRESENTATION_ITEM('density measure',
POSITIVE_RATIO_MEASURE(7850.),#256);
#258=PROPERTY_DEFINITION_REPRESENTATION(#263,#260);
#259=PROPERTY_DEFINITION_REPRESENTATION(#264,#261);
#260=REPRESENTATION('material name',(#262),#439);
#261=REPRESENTATION('density',(#257),#439);
#262=DESCRIPTIVE_REPRESENTATION_ITEM('Steel','Steel');
#263=PROPERTY_DEFINITION('material property','material name',#449);
#264=PROPERTY_DEFINITION('material property','density of part',#449);
#265=AXIS2_PLACEMENT_3D('',#368,#293,#294);
#266=AXIS2_PLACEMENT_3D('',#369,#295,#296);
#267=AXIS2_PLACEMENT_3D('',#371,#297,#298);
#268=AXIS2_PLACEMENT_3D('',#374,#300,#301);
#269=AXIS2_PLACEMENT_3D('',#375,#302,#303);
#270=AXIS2_PLACEMENT_3D('',#377,#304,#305);
#271=AXIS2_PLACEMENT_3D('',#380,#307,#308);
#272=AXIS2_PLACEMENT_3D('',#381,#309,#310);
#273=AXIS2_PLACEMENT_3D('',#383,#311,#312);
#274=AXIS2_PLACEMENT_3D('',#386,#314,#315);
#275=AXIS2_PLACEMENT_3D('',#387,#316,#317);
#276=AXIS2_PLACEMENT_3D('',#390,#318,#319);
#277=AXIS2_PLACEMENT_3D('',#394,#321,#322);
#278=AXIS2_PLACEMENT_3D('',#396,#324,#325);
#279=AXIS2_PLACEMENT_3D('',#402,#329,#330);
#280=AXIS2_PLACEMENT_3D('',#406,#332,#333);
#281=AXIS2_PLACEMENT_3D('',#410,#335,#336);
#282=AXIS2_PLACEMENT_3D('',#413,#338,#339);
#283=AXIS2_PLACEMENT_3D('',#414,#340,#341);
#284=AXIS2_PLACEMENT_3D('',#417,#343,#344);
#285=AXIS2_PLACEMENT_3D('',#418,#345,#346);
#286=AXIS2_PLACEMENT_3D('',#422,#349,#350);
#287=AXIS2_PLACEMENT_3D('',#426,#352,#353);
#288=AXIS2_PLACEMENT_3D('',#428,#355,#356);
#289=AXIS2_PLACEMENT_3D('',#430,#358,#359);
#290=AXIS2_PLACEMENT_3D('',#433,#361,#362);
#291=AXIS2_PLACEMENT_3D('',#434,#363,#364);
#292=AXIS2_PLACEMENT_3D('',#436,#366,#367);
#293=DIRECTION('axis',(0.,0.,1.));
#294=DIRECTION('refdir',(1.,0.,0.));
#295=DIRECTION('center_axis',(0.,-1.,0.));
#296=DIRECTION('ref_axis',(0.,0.,1.));
#297=DIRECTION('center_axis',(0.,-1.,0.));
#298=DIRECTION('ref_axis',(0.,0.,1.));
#299=DIRECTION('',(0.,-1.,0.));
#300=DIRECTION('center_axis',(0.,1.,0.));
#301=DIRECTION('ref_axis',(0.,0.,1.));
#302=DIRECTION('center_axis',(0.,-1.,0.));
#303=DIRECTION('ref_axis',(0.,0.,1.));
#304=DIRECTION('center_axis',(0.,-1.,0.));
#305=DIRECTION('ref_axis',(0.,0.,1.));
#306=DIRECTION('',(0.,-1.,0.));
#307=DIRECTION('center_axis',(0.,1.,0.));
#308=DIRECTION('ref_axis',(0.,0.,1.));
#309=DIRECTION('center_axis',(0.,-1.,0.));
#310=DIRECTION('ref_axis',(0.,0.,1.));
#311=DIRECTION('center_axis',(0.,-1.,0.));
#312=DIRECTION('ref_axis',(0.,0.,1.));
#313=DIRECTION('',(0.,-1.,0.));
#314=DIRECTION('center_axis',(0.,1.,0.));
#315=DIRECTION('ref_axis',(0.,0.,1.));
#316=DIRECTION('center_axis',(0.,-1.,0.));
#317=DIRECTION('ref_axis',(-0.707106781186548,0.,-0.707106781186548));
#318=DIRECTION('center_axis',(0.,1.,0.));
#319=DIRECTION('ref_axis',(-0.707106781186548,0.,-0.707106781186548));
#320=DIRECTION('',(0.,1.,0.));
#321=DIRECTION('center_axis',(0.,-1.,0.));
#322=DIRECTION('ref_axis',(-0.707106781186548,0.,-0.707106781186548));
#323=DIRECTION('',(0.,-1.,0.));
#324=DIRECTION('center_axis',(-1.,0.,0.));
#325=DIRECTION('ref_axis',(0.,0.,-1.));
#326=DIRECTION('',(0.,0.,-1.));
#327=DIRECTION('',(0.,-1.,0.));
#328=DIRECTION('',(0.,0.,-1.));
#329=DIRECTION('center_axis',(0.,-1.,0.));
#330=DIRECTION('ref_axis',(0.,0.,-1.));
#331=DIRECTION('',(1.,0.,0.));
#332=DIRECTION('center_axis',(0.,1.,0.));
#333=DIRECTION('ref_axis',(0.707106781186548,0.,-0.707106781186548));
#334=DIRECTION('',(0.,0.,1.));
#335=DIRECTION('center_axis',(0.,1.,0.));
#336=DIRECTION('ref_axis',(0.707106781186548,0.,0.707106781186548));
#337=DIRECTION('',(-1.,0.,0.));
#338=DIRECTION('center_axis',(0.,1.,0.));
#339=DIRECTION('ref_axis',(-0.707106781186548,0.,0.707106781186548));
#340=DIRECTION('center_axis',(0.,-1.,0.));
#341=DIRECTION('ref_axis',(-0.707106781186548,0.,0.707106781186548));
#342=DIRECTION('',(0.,1.,0.));
#343=DIRECTION('center_axis',(0.,-1.,0.));
#344=DIRECTION('ref_axis',(-0.707106781186548,0.,0.707106781186548));
#345=DIRECTION('center_axis',(0.,0.,1.));
#346=DIRECTION('ref_axis',(-1.,0.,0.));
#347=DIRECTION('',(0.,-1.,0.));
#348=DIRECTION('',(-1.,0.,0.));
#349=DIRECTION('center_axis',(0.,-1.,0.));
#350=DIRECTION('ref_axis',(0.707106781186548,0.,-0.707106781186548));
#351=DIRECTION('',(0.,1.,0.));
#352=DIRECTION('center_axis',(0.,-1.,0.));
#353=DIRECTION('ref_axis',(0.707106781186548,0.,-0.707106781186548));
#354=DIRECTION('',(0.,-1.,0.));
#355=DIRECTION('center_axis',(0.,0.,-1.));
#356=DIRECTION('ref_axis',(1.,0.,0.));
#357=DIRECTION('',(1.,0.,0.));
#358=DIRECTION('center_axis',(0.,-1.,0.));
#359=DIRECTION('ref_axis',(0.707106781186548,0.,0.707106781186548));
#360=DIRECTION('',(0.,1.,0.));
#361=DIRECTION('center_axis',(0.,-1.,0.));
#362=DIRECTION('ref_axis',(0.707106781186548,0.,0.707106781186548));
#363=DIRECTION('center_axis',(1.,0.,0.));
#364=DIRECTION('ref_axis',(0.,0.,1.));
#365=DIRECTION('',(0.,0.,1.));
#366=DIRECTION('center_axis',(0.,1.,0.));
#367=DIRECTION('ref_axis',(1.,0.,0.));
#368=CARTESIAN_POINT('',(0.,0.,0.));
#369=CARTESIAN_POINT('Origin',(16.,-1.1,16.5));
#370=CARTESIAN_POINT('',(16.,0.,14.));
#371=CARTESIAN_POINT('Origin',(16.,0.,16.5));
#372=CARTESIAN_POINT('',(16.,-2.,14.));
#373=CARTESIAN_POINT('',(16.,-1.1,14.));
#374=CARTESIAN_POINT('Origin',(16.,-2.,16.5));
#375=CARTESIAN_POINT('Origin',(-16.,-1.1,16.5));
#376=CARTESIAN_POINT('',(-16.,0.,14.));
#377=CARTESIAN_POINT('Origin',(-16.,0.,16.5));
#378=CARTESIAN_POINT('',(-16.,-2.,14.));
#379=CARTESIAN_POINT('',(-16.,-1.1,14.));
#380=CARTESIAN_POINT('Origin',(-16.,-2.,16.5));
#381=CARTESIAN_POINT('Origin',(1.89032291503412E-15,-1.1,-15.5));
#382=CARTESIAN_POINT('',(2.19648461482096E-15,0.,-18.));
#383=CARTESIAN_POINT('Origin',(1.89032291503412E-15,0.,-15.5));
#384=CARTESIAN_POINT('',(1.58416121524728E-15,-2.,-18.));
#385=CARTESIAN_POINT('',(2.19648461482096E-15,-1.1,-18.));
#386=CARTESIAN_POINT('Origin',(1.89032291503412E-15,-2.,-15.5));
#387=CARTESIAN_POINT('Origin',(-18.,0.,-18.));
#388=CARTESIAN_POINT('',(-18.,-2.,-20.));
#389=CARTESIAN_POINT('',(-20.,-2.,-18.));
#390=CARTESIAN_POINT('Origin',(-18.,-2.,-18.));
#391=CARTESIAN_POINT('',(-20.,0.,-18.));
#392=CARTESIAN_POINT('',(-20.,0.,-18.));
#393=CARTESIAN_POINT('',(-18.,0.,-20.));
#394=CARTESIAN_POINT('Origin',(-18.,0.,-18.));
#395=CARTESIAN_POINT('',(-18.,0.,-20.));
#396=CARTESIAN_POINT('Origin',(-20.,0.,20.));
#397=CARTESIAN_POINT('',(-20.,-2.,18.));
#398=CARTESIAN_POINT('',(-20.,-2.,20.));
#399=CARTESIAN_POINT('',(-20.,0.,18.));
#400=CARTESIAN_POINT('',(-20.,0.,18.));
#401=CARTESIAN_POINT('',(-20.,0.,20.));
#402=CARTESIAN_POINT('Origin',(0.,-2.,0.));
#403=CARTESIAN_POINT('',(18.,-2.,-20.));
#404=CARTESIAN_POINT('',(-20.,-2.,-20.));
#405=CARTESIAN_POINT('',(20.,-2.,-18.));
#406=CARTESIAN_POINT('Origin',(18.,-2.,-18.));
#407=CARTESIAN_POINT('',(20.,-2.,18.));
#408=CARTESIAN_POINT('',(20.,-2.,-20.));
#409=CARTESIAN_POINT('',(18.,-2.,20.));
#410=CARTESIAN_POINT('Origin',(18.,-2.,18.));
#411=CARTESIAN_POINT('',(-18.,-2.,20.));
#412=CARTESIAN_POINT('',(20.,-2.,20.));
#413=CARTESIAN_POINT('Origin',(-18.,-2.,18.));
#414=CARTESIAN_POINT('Origin',(-18.,0.,18.));
#415=CARTESIAN_POINT('',(-18.,0.,20.));
#416=CARTESIAN_POINT('',(-18.,0.,20.));
#417=CARTESIAN_POINT('Origin',(-18.,0.,18.));
#418=CARTESIAN_POINT('Origin',(20.,0.,20.));
#419=CARTESIAN_POINT('',(18.,0.,20.));
#420=CARTESIAN_POINT('',(18.,0.,20.));
#421=CARTESIAN_POINT('',(20.,0.,20.));
#422=CARTESIAN_POINT('Origin',(18.,0.,-18.));
#423=CARTESIAN_POINT('',(18.,0.,-20.));
#424=CARTESIAN_POINT('',(18.,0.,-20.));
#425=CARTESIAN_POINT('',(20.,0.,-18.));
#426=CARTESIAN_POINT('Origin',(18.,0.,-18.));
#427=CARTESIAN_POINT('',(20.,0.,-18.));
#428=CARTESIAN_POINT('Origin',(-20.,0.,-20.));
#429=CARTESIAN_POINT('',(-20.,0.,-20.));
#430=CARTESIAN_POINT('Origin',(18.,0.,18.));
#431=CARTESIAN_POINT('',(20.,0.,18.));
#432=CARTESIAN_POINT('',(20.,0.,18.));
#433=CARTESIAN_POINT('Origin',(18.,0.,18.));
#434=CARTESIAN_POINT('Origin',(20.,0.,-20.));
#435=CARTESIAN_POINT('',(20.,0.,-20.));
#436=CARTESIAN_POINT('Origin',(0.,0.,0.));
#437=UNCERTAINTY_MEASURE_WITH_UNIT(LENGTH_MEASURE(0.01),#441,
'DISTANCE_ACCURACY_VALUE',
'Maximum model space distance between geometric entities at asserted c
onnectivities');
#438=UNCERTAINTY_MEASURE_WITH_UNIT(LENGTH_MEASURE(0.01),#441,
'DISTANCE_ACCURACY_VALUE',
'Maximum model space distance between geometric entities at asserted c
onnectivities');
#439=(
GEOMETRIC_REPRESENTATION_CONTEXT(3)
GLOBAL_UNCERTAINTY_ASSIGNED_CONTEXT((#437))
GLOBAL_UNIT_ASSIGNED_CONTEXT((#441,#443,#444))
REPRESENTATION_CONTEXT('','3D')
);
#440=(
GEOMETRIC_REPRESENTATION_CONTEXT(3)
GLOBAL_UNCERTAINTY_ASSIGNED_CONTEXT((#438))
GLOBAL_UNIT_ASSIGNED_CONTEXT((#441,#443,#444))
REPRESENTATION_CONTEXT('','3D')
);
#441=(
LENGTH_UNIT()
NAMED_UNIT(*)
SI_UNIT(.MILLI.,.METRE.)
);
#442=(
LENGTH_UNIT()
NAMED_UNIT(*)
SI_UNIT($,.METRE.)
);
#443=(
NAMED_UNIT(*)
PLANE_ANGLE_UNIT()
SI_UNIT($,.RADIAN.)
);
#444=(
NAMED_UNIT(*)
SI_UNIT($,.STERADIAN.)
SOLID_ANGLE_UNIT()
);
#445=SHAPE_DEFINITION_REPRESENTATION(#446,#447);
#446=PRODUCT_DEFINITION_SHAPE('',$,#449);
#447=SHAPE_REPRESENTATION('',(#265),#439);
#448=PRODUCT_DEFINITION_CONTEXT('part definition',#453,'design');
#449=PRODUCT_DEFINITION('40x40','40x40 v3',#450,#448);
#450=PRODUCT_DEFINITION_FORMATION('',$,#455);
#451=PRODUCT_RELATED_PRODUCT_CATEGORY('40x40 v3','40x40 v3',(#455));
#452=APPLICATION_PROTOCOL_DEFINITION('international standard',
'automotive_design',2009,#453);
#453=APPLICATION_CONTEXT(
'Core Data for Automotive Mechanical Design Process');
#454=PRODUCT_CONTEXT('part definition',#453,'mechanical');
#455=PRODUCT('40x40','40x40 v3',$,(#454));
#456=PRESENTATION_STYLE_ASSIGNMENT((#457));
#457=SURFACE_STYLE_USAGE(.BOTH.,#458);
#458=SURFACE_SIDE_STYLE('',(#459));
#459=SURFACE_STYLE_FILL_AREA(#460);
#460=FILL_AREA_STYLE('Steel - Satin',(#461));
#461=FILL_AREA_STYLE_COLOUR('Steel - Satin',#462);
#462=COLOUR_RGB('Steel - Satin',0.627450980392157,0.627450980392157,0.627450980392157);
ENDSEC;
END-ISO-10303-21;
