ISO-10303-21;
HEADER;
FILE_DESCRIPTION (( 'STEP AP214' ),
    '1' );
FILE_NAME ('4.04.WHP.STEP',
    '2025-06-12T20:42:57',
    ( '' ),
    ( '' ),
    'SwSTEP 2.0',
    'SolidWorks 2023',
    '' );
FILE_SCHEMA (( 'AUTOMOTIVE_DESIGN' ));
ENDSEC;

DATA;
#1 = CARTESIAN_POINT ( 'NONE',  ( 1.000000000000000000, 0.000000000000000000, 3.000000000000000444 ) ) ;
#2 = CARTESIAN_POINT ( 'NONE',  ( 1.000000000000000000, 0.000000000000000000, 0.000000000000000000 ) ) ;
#3 = DIRECTION ( 'NONE',  ( 0.000000000000000000, 0.000000000000000000, -1.000000000000000000 ) ) ;
#4 = EDGE_CURVE ( 'NONE', #305, #19, #310, .T. ) ;
#5 = CIRCLE ( 'NONE', #50, 3.000000000000000444 ) ;
#6 = DIRECTION ( 'NONE',  ( -1.000000000000000000, -0.000000000000000000, -0.000000000000000000 ) ) ;
#7 = CARTESIAN_POINT ( 'NONE',  ( 0.000000000000000000, 3.673940397442060361E-16, 3.000000000000000444 ) ) ;
#8 = CARTESIAN_POINT ( 'NONE',  ( 25.50000000000000355, 3.061616997868368350E-16, -2.499999999999988454 ) ) ;
#9 = UNCERTAINTY_MEASURE_WITH_UNIT (LENGTH_MEASURE( 1.000000000000000082E-05 ), #78, 'distance_accuracy_value', 'NONE');
#10 = FACE_OUTER_BOUND ( 'NONE', #147, .T. ) ;
#11 = EDGE_LOOP ( 'NONE', ( #54, #274 ) ) ;
#12 = CONICAL_SURFACE ( 'NONE', #165, 2.499999999999988454, 0.7853981633974530530 ) ;
#13 = CIRCLE ( 'NONE', #378, 2.499999999999988454 ) ;
#14 = ORIENTED_EDGE ( 'NONE', *, *, #170, .F. ) ;
#15 = EDGE_CURVE ( 'NONE', #206, #45, #176, .T. ) ;
#16 = AXIS2_PLACEMENT_3D ( 'NONE', #74, #231, #219 ) ;
#17 = ORIENTED_EDGE ( 'NONE', *, *, #313, .T. ) ;
#18 = CARTESIAN_POINT ( 'NONE',  ( 25.50000000000000355, 0.000000000000000000, 2.499999999999988454 ) ) ;
#19 = VERTEX_POINT ( 'NONE', #157 ) ;
#20 = CARTESIAN_POINT ( 'NONE',  ( 25.50000000000000355, 0.000000000000000000, 0.000000000000000000 ) ) ;
#21 = EDGE_CURVE ( 'NONE', #229, #283, #23, .T. ) ;
#22 = CARTESIAN_POINT ( 'NONE',  ( 1.000000000000000000, 0.000000000000000000, 0.000000000000000000 ) ) ;
#23 = LINE ( 'NONE', #257, #135 ) ;
#24 = VERTEX_POINT ( 'NONE', #18 ) ;
#25 =( GEOMETRIC_REPRESENTATION_CONTEXT ( 3 ) GLOBAL_UNCERTAINTY_ASSIGNED_CONTEXT ( ( #9 ) ) GLOBAL_UNIT_ASSIGNED_CONTEXT ( ( #78, #286, #255 ) ) REPRESENTATION_CONTEXT ( 'NONE', 'WORKASPACE' ) );
#26 = DIRECTION ( 'NONE',  ( 1.000000000000000000, -0.000000000000000000, -0.000000000000000000 ) ) ;
#27 = ORIENTED_EDGE ( 'NONE', *, *, #284, .F. ) ;
#28 = PLANE ( 'NONE',  #104 ) ;
#29 = DIRECTION ( 'NONE',  ( 0.000000000000000000, 0.000000000000000000, 1.000000000000000000 ) ) ;
#30 = STYLED_ITEM ( 'NONE', ( #346 ), #122 ) ;
#31 = DIRECTION ( 'NONE',  ( 1.000000000000000000, 0.000000000000000000, 0.000000000000000000 ) ) ;
#32 = ADVANCED_FACE ( 'NONE', ( #10 ), #240, .T. ) ;
#33 =( NAMED_UNIT ( * ) PLANE_ANGLE_UNIT ( ) SI_UNIT ( $, .RADIAN. ) );
#34 = ORIENTED_EDGE ( 'NONE', *, *, #85, .F. ) ;
#35 = DIRECTION ( 'NONE',  ( -1.000000000000000000, -0.000000000000000000, -0.000000000000000000 ) ) ;
#36 = PLANE ( 'NONE',  #60 ) ;
#37 = MECHANICAL_DESIGN_GEOMETRIC_PRESENTATION_REPRESENTATION (  '', ( #30 ), #25 ) ;
#38 = LINE ( 'NONE', #106, #103 ) ;
#39 = ORIENTED_EDGE ( 'NONE', *, *, #205, .F. ) ;
#40 = CARTESIAN_POINT ( 'NONE',  ( 0.000000000000000000, 0.000000000000000000, 5.000000000000000000 ) ) ;
#41 = APPLICATION_CONTEXT ( 'automotive_design' ) ;
#42 = EDGE_LOOP ( 'NONE', ( #134, #48 ) ) ;
#43 = VERTEX_POINT ( 'NONE', #40 ) ;
#44 = APPLICATION_PROTOCOL_DEFINITION ( 'draft international standard', 'automotive_design', 1998, #278 ) ;
#45 = VERTEX_POINT ( 'NONE', #128 ) ;
#46 = FACE_OUTER_BOUND ( 'NONE', #179, .T. ) ;
#47 = APPLICATION_PROTOCOL_DEFINITION ( 'draft international standard', 'automotive_design', 1998, #41 ) ;
#48 = ORIENTED_EDGE ( 'NONE', *, *, #4, .F. ) ;
#49 = AXIS2_PLACEMENT_3D ( 'NONE', #304, #213, #218 ) ;
#50 = AXIS2_PLACEMENT_3D ( 'NONE', #94, #264, #299 ) ;
#51 = FACE_OUTER_BOUND ( 'NONE', #197, .T. ) ;
#52 = PRODUCT_DEFINITION ( 'UNKNOWN', '', #118, #173 ) ;
#53 = DIRECTION ( 'NONE',  ( 0.000000000000000000, 0.000000000000000000, 1.000000000000000000 ) ) ;
#54 = ORIENTED_EDGE ( 'NONE', *, *, #258, .T. ) ;
#55 = FACE_OUTER_BOUND ( 'NONE', #76, .T. ) ;
#56 = EDGE_LOOP ( 'NONE', ( #272, #195, #114, #138 ) ) ;
#57 = ADVANCED_FACE ( 'NONE', ( #46 ), #367, .T. ) ;
#58 = CARTESIAN_POINT ( 'NONE',  ( 1.000000000000000000, 6.123233995736766282E-16, -5.000000000000000000 ) ) ;
#59 = LINE ( 'NONE', #129, #344 ) ;
#60 = AXIS2_PLACEMENT_3D ( 'NONE', #269, #358, #311 ) ;
#61 = EDGE_CURVE ( 'NONE', #377, #319, #174, .T. ) ;
#62 = DIRECTION ( 'NONE',  ( -1.000000000000000000, -0.000000000000000000, -0.000000000000000000 ) ) ;
#63 = CARTESIAN_POINT ( 'NONE',  ( -24.50000000000000000, 0.000000000000000000, -2.499999999999988454 ) ) ;
#64 = DIRECTION ( 'NONE',  ( -1.000000000000000000, -0.000000000000000000, -0.000000000000000000 ) ) ;
#65 = CARTESIAN_POINT ( 'NONE',  ( 24.99999999999999289, 3.673940397442060361E-16, -3.000000000000000444 ) ) ;
#66 = ORIENTED_EDGE ( 'NONE', *, *, #251, .F. ) ;
#67 = CLOSED_SHELL ( 'NONE', ( #326, #303, #236, #232, #354, #196, #154, #123, #57, #379, #247, #298, #32, #369 ) ) ;
#68 = SURFACE_SIDE_STYLE ('',( #339 ) ) ;
#69 = VERTEX_POINT ( 'NONE', #335 ) ;
#70 = EDGE_CURVE ( 'NONE', #208, #69, #132, .T. ) ;
#71 = ORIENTED_EDGE ( 'NONE', *, *, #313, .F. ) ;
#72 = AXIS2_PLACEMENT_3D ( 'NONE', #381, #235, #383 ) ;
#73 = EDGE_LOOP ( 'NONE', ( #365, #338, #342, #39 ) ) ;
#74 = CARTESIAN_POINT ( 'NONE',  ( -23.99999999999999289, 0.000000000000000000, 0.000000000000000000 ) ) ;
#75 = ORIENTED_EDGE ( 'NONE', *, *, #316, .T. ) ;
#76 = EDGE_LOOP ( 'NONE', ( #320, #17 ) ) ;
#77 = EDGE_CURVE ( 'NONE', #69, #43, #86, .T. ) ;
#78 =( LENGTH_UNIT ( ) NAMED_UNIT ( * ) SI_UNIT ( .MILLI., .METRE. ) );
#79 = ORIENTED_EDGE ( 'NONE', *, *, #228, .F. ) ;
#80 = CARTESIAN_POINT ( 'NONE',  ( -24.50000000000000000, 3.673940397442060361E-16, 3.000000000000000444 ) ) ;
#81 = EDGE_LOOP ( 'NONE', ( #292, #159, #27, #34 ) ) ;
#82 = CARTESIAN_POINT ( 'NONE',  ( -24.50000000000000000, 0.000000000000000000, -3.000000000000000444 ) ) ;
#83 = DIRECTION ( 'NONE',  ( 0.000000000000000000, 0.000000000000000000, 1.000000000000000000 ) ) ;
#84 = AXIS2_PLACEMENT_3D ( 'NONE', #91, #301, #243 ) ;
#85 = EDGE_CURVE ( 'NONE', #345, #223, #38, .T. ) ;
#86 = CIRCLE ( 'NONE', #140, 5.000000000000000000 ) ;
#87 = CONICAL_SURFACE ( 'NONE', #49, 2.499999999999988454, 0.7853981633974530530 ) ;
#88 = DIRECTION ( 'NONE',  ( -0.7071067811865441310, 0.000000000000000000, 0.7071067811865507924 ) ) ;
#89 = DIRECTION ( 'NONE',  ( 1.000000000000000000, 0.000000000000000000, 0.000000000000000000 ) ) ;
#90 = EDGE_CURVE ( 'NONE', #256, #43, #190, .T. ) ;
#91 = CARTESIAN_POINT ( 'NONE',  ( -24.50000000000000000, 0.000000000000000000, 0.000000000000000000 ) ) ;
#92 = VECTOR ( 'NONE', #119, 1000.000000000000114 ) ;
#93 = DIRECTION ( 'NONE',  ( 1.000000000000000000, 0.000000000000000000, 0.000000000000000000 ) ) ;
#94 = CARTESIAN_POINT ( 'NONE',  ( 24.99999999999999289, 0.000000000000000000, 0.000000000000000000 ) ) ;
#95 = ADVANCED_BREP_SHAPE_REPRESENTATION ( '4.04.WHP', ( #122, #133 ), #162 ) ;
#96 = CARTESIAN_POINT ( 'NONE',  ( 25.50000000000000355, 0.000000000000000000, 0.000000000000000000 ) ) ;
#97 = FILL_AREA_STYLE_COLOUR ( '', #187 ) ;
#98 = AXIS2_PLACEMENT_3D ( 'NONE', #295, #26, #149 ) ;
#99 = EDGE_LOOP ( 'NONE', ( #183, #150 ) ) ;
#100 = PRODUCT_CONTEXT ( 'NONE', #41, 'mechanical' ) ;
#101 = ORIENTED_EDGE ( 'NONE', *, *, #170, .T. ) ;
#102 = DIRECTION ( 'NONE',  ( 0.000000000000000000, 0.000000000000000000, -1.000000000000000000 ) ) ;
#103 = VECTOR ( 'NONE', #246, 1000.000000000000114 ) ;
#104 = AXIS2_PLACEMENT_3D ( 'NONE', #22, #237, #351 ) ;
#105 = ORIENTED_EDGE ( 'NONE', *, *, #116, .T. ) ;
#106 = CARTESIAN_POINT ( 'NONE',  ( -24.50000000000000000, 0.000000000000000000, -2.499999999999988454 ) ) ;
#107 = ORIENTED_EDGE ( 'NONE', *, *, #15, .F. ) ;
#108 = CARTESIAN_POINT ( 'NONE',  ( 25.50000000000000355, 0.000000000000000000, 0.000000000000000000 ) ) ;
#109 = EDGE_CURVE ( 'NONE', #45, #223, #191, .T. ) ;
#110 = ORIENTED_EDGE ( 'NONE', *, *, #61, .T. ) ;
#111 = CYLINDRICAL_SURFACE ( 'NONE', #385, 5.000000000000000000 ) ;
#112 = CIRCLE ( 'NONE', #332, 3.000000000000000444 ) ;
#113 = FACE_OUTER_BOUND ( 'NONE', #56, .T. ) ;
#114 = ORIENTED_EDGE ( 'NONE', *, *, #205, .T. ) ;
#115 = FACE_OUTER_BOUND ( 'NONE', #248, .T. ) ;
#116 = EDGE_CURVE ( 'NONE', #229, #319, #222, .T. ) ;
#117 = CYLINDRICAL_SURFACE ( 'NONE', #277, 3.000000000000000444 ) ;
#118 = PRODUCT_DEFINITION_FORMATION_WITH_SPECIFIED_SOURCE ( 'ANY', '', #185, .NOT_KNOWN. ) ;
#119 = DIRECTION ( 'NONE',  ( 0.7071067811865441310, 8.659560562354974766E-17, 0.7071067811865507924 ) ) ;
#120 = AXIS2_PLACEMENT_3D ( 'NONE', #260, #376, #380 ) ;
#121 = CARTESIAN_POINT ( 'NONE',  ( -24.50000000000000000, 0.000000000000000000, 0.000000000000000000 ) ) ;
#122 = MANIFOLD_SOLID_BREP ( 'Chamfer1', #67 ) ;
#123 = ADVANCED_FACE ( 'NONE', ( #289, #375 ), #349, .F. ) ;
#124 = PLANE ( 'NONE',  #254 ) ;
#125 = CARTESIAN_POINT ( 'NONE',  ( 1.000000000000000000, 0.000000000000000000, 0.000000000000000000 ) ) ;
#126 = CIRCLE ( 'NONE', #139, 5.000000000000000000 ) ;
#127 = DIRECTION ( 'NONE',  ( -1.000000000000000000, 0.000000000000000000, 0.000000000000000000 ) ) ;
#128 = CARTESIAN_POINT ( 'NONE',  ( -23.99999999999999289, 3.673940397442060361E-16, 3.000000000000000444 ) ) ;
#129 = CARTESIAN_POINT ( 'NONE',  ( 25.50000000000000355, 3.673940397442060361E-16, -3.000000000000000444 ) ) ;
#130 = CARTESIAN_POINT ( 'NONE',  ( 1.000000000000000000, 0.000000000000000000, 5.000000000000000000 ) ) ;
#131 = FACE_OUTER_BOUND ( 'NONE', #81, .T. ) ;
#132 = LINE ( 'NONE', #142, #350 ) ;
#133 = AXIS2_PLACEMENT_3D ( 'NONE', #315, #249, #318 ) ;
#134 = ORIENTED_EDGE ( 'NONE', *, *, #136, .F. ) ;
#135 = VECTOR ( 'NONE', #280, 1000.000000000000000 ) ;
#136 = EDGE_CURVE ( 'NONE', #19, #305, #112, .T. ) ;
#137 = SHAPE_DEFINITION_REPRESENTATION ( #250, #95 ) ;
#138 = ORIENTED_EDGE ( 'NONE', *, *, #136, .T. ) ;
#139 = AXIS2_PLACEMENT_3D ( 'NONE', #239, #359, #273 ) ;
#140 = AXIS2_PLACEMENT_3D ( 'NONE', #168, #167, #281 ) ;
#141 = AXIS2_PLACEMENT_3D ( 'NONE', #362, #188, #306 ) ;
#142 = CARTESIAN_POINT ( 'NONE',  ( 1.000000000000000000, 6.123233995736766282E-16, -5.000000000000000000 ) ) ;
#143 = ORIENTED_EDGE ( 'NONE', *, *, #70, .F. ) ;
#144 = CARTESIAN_POINT ( 'NONE',  ( -24.50000000000000000, 0.000000000000000000, 0.000000000000000000 ) ) ;
#145 = ORIENTED_EDGE ( 'NONE', *, *, #109, .F. ) ;
#146 = VECTOR ( 'NONE', #230, 1000.000000000000114 ) ;
#147 = EDGE_LOOP ( 'NONE', ( #347, #263, #160, #169 ) ) ;
#148 = EDGE_CURVE ( 'NONE', #319, #229, #5, .T. ) ;
#149 = DIRECTION ( 'NONE',  ( 0.000000000000000000, 0.000000000000000000, -1.000000000000000000 ) ) ;
#150 = ORIENTED_EDGE ( 'NONE', *, *, #343, .F. ) ;
#151 = LINE ( 'NONE', #80, #288 ) ;
#152 = CARTESIAN_POINT ( 'NONE',  ( 25.50000000000000355, 0.000000000000000000, 0.000000000000000000 ) ) ;
#153 = AXIS2_PLACEMENT_3D ( 'NONE', #125, #31, #3 ) ;
#154 = ADVANCED_FACE ( 'NONE', ( #209, #55 ), #28, .T. ) ;
#155 = VECTOR ( 'NONE', #88, 1000.000000000000114 ) ;
#156 = CARTESIAN_POINT ( 'NONE',  ( 25.50000000000000355, 3.367778697655214109E-16, -2.499999999999988454 ) ) ;
#157 = CARTESIAN_POINT ( 'NONE',  ( 0.000000000000000000, 0.000000000000000000, -3.000000000000000444 ) ) ;
#158 = CARTESIAN_POINT ( 'NONE',  ( 1.000000000000000000, 3.673940397442060361E-16, -3.000000000000000444 ) ) ;
#159 = ORIENTED_EDGE ( 'NONE', *, *, #15, .T. ) ;
#160 = ORIENTED_EDGE ( 'NONE', *, *, #251, .T. ) ;
#161 = DIRECTION ( 'NONE',  ( 0.000000000000000000, 0.000000000000000000, -1.000000000000000000 ) ) ;
#162 =( GEOMETRIC_REPRESENTATION_CONTEXT ( 3 ) GLOBAL_UNCERTAINTY_ASSIGNED_CONTEXT ( ( #374 ) ) GLOBAL_UNIT_ASSIGNED_CONTEXT ( ( #164, #33, #308 ) ) REPRESENTATION_CONTEXT ( 'NONE', 'WORKASPACE' ) );
#163 = VECTOR ( 'NONE', #211, 1000.000000000000000 ) ;
#164 =( LENGTH_UNIT ( ) NAMED_UNIT ( * ) SI_UNIT ( .MILLI., .METRE. ) );
#165 = AXIS2_PLACEMENT_3D ( 'NONE', #96, #215, #189 ) ;
#166 = EDGE_CURVE ( 'NONE', #45, #305, #151, .T. ) ;
#167 = DIRECTION ( 'NONE',  ( 1.000000000000000000, 0.000000000000000000, 0.000000000000000000 ) ) ;
#168 = CARTESIAN_POINT ( 'NONE',  ( 0.000000000000000000, 0.000000000000000000, 0.000000000000000000 ) ) ;
#169 = ORIENTED_EDGE ( 'NONE', *, *, #148, .F. ) ;
#170 = EDGE_CURVE ( 'NONE', #345, #206, #13, .T. ) ;
#171 = ORIENTED_EDGE ( 'NONE', *, *, #70, .T. ) ;
#172 = EDGE_LOOP ( 'NONE', ( #71, #171, #252, #225 ) ) ;
#173 = PRODUCT_DEFINITION_CONTEXT ( 'detailed design', #278, 'design' ) ;
#174 = LINE ( 'NONE', #8, #146 ) ;
#175 = EDGE_CURVE ( 'NONE', #256, #208, #226, .T. ) ;
#176 = LINE ( 'NONE', #214, #92 ) ;
#177 = CARTESIAN_POINT ( 'NONE',  ( 1.000000000000000000, 0.000000000000000000, 5.000000000000000000 ) ) ;
#178 = DIRECTION ( 'NONE',  ( 0.000000000000000000, 0.000000000000000000, 1.000000000000000000 ) ) ;
#179 = EDGE_LOOP ( 'NONE', ( #285, #312, #203, #307 ) ) ;
#180 = CYLINDRICAL_SURFACE ( 'NONE', #98, 3.000000000000000444 ) ;
#181 = CONICAL_SURFACE ( 'NONE', #141, 2.499999999999988454, 0.7853981633974530530 ) ;
#182 = PRESENTATION_LAYER_ASSIGNMENT (  '', '', ( #30 ) ) ;
#183 = ORIENTED_EDGE ( 'NONE', *, *, #270, .F. ) ;
#184 = DIRECTION ( 'NONE',  ( -1.000000000000000000, -0.000000000000000000, -0.000000000000000000 ) ) ;
#185 = PRODUCT ( '4.04.WHP', '4.04.WHP', '', ( #100 ) ) ;
#186 = CARTESIAN_POINT ( 'NONE',  ( -23.99999999999999289, 0.000000000000000000, 0.000000000000000000 ) ) ;
#187 = COLOUR_RGB ( '',0.7921568627450980005, 0.8196078431372548767, 0.9333333333333333481 ) ;
#188 = DIRECTION ( 'NONE',  ( 1.000000000000000000, 0.000000000000000000, 0.000000000000000000 ) ) ;
#189 = DIRECTION ( 'NONE',  ( 0.000000000000000000, 0.000000000000000000, 1.000000000000000000 ) ) ;
#190 = LINE ( 'NONE', #130, #360 ) ;
#191 = CIRCLE ( 'NONE', #16, 3.000000000000000444 ) ;
#192 = FACE_OUTER_BOUND ( 'NONE', #11, .T. ) ;
#193 = ORIENTED_EDGE ( 'NONE', *, *, #336, .T. ) ;
#194 = DIRECTION ( 'NONE',  ( -1.000000000000000000, -0.000000000000000000, -0.000000000000000000 ) ) ;
#195 = ORIENTED_EDGE ( 'NONE', *, *, #109, .T. ) ;
#196 = ADVANCED_FACE ( 'NONE', ( #115 ), #111, .T. ) ;
#197 = EDGE_LOOP ( 'NONE', ( #105, #193, #324, #233 ) ) ;
#198 = ORIENTED_EDGE ( 'NONE', *, *, #116, .F. ) ;
#199 = DIRECTION ( 'NONE',  ( 0.000000000000000000, 0.000000000000000000, 1.000000000000000000 ) ) ;
#200 = DIRECTION ( 'NONE',  ( -1.000000000000000000, -0.000000000000000000, -0.000000000000000000 ) ) ;
#201 = DIRECTION ( 'NONE',  ( 1.000000000000000000, 0.000000000000000000, 0.000000000000000000 ) ) ;
#202 = CIRCLE ( 'NONE', #302, 3.000000000000000444 ) ;
#203 = ORIENTED_EDGE ( 'NONE', *, *, #21, .T. ) ;
#204 = CARTESIAN_POINT ( 'NONE',  ( 24.99999999999999289, 0.000000000000000000, 3.000000000000000444 ) ) ;
#205 = EDGE_CURVE ( 'NONE', #223, #19, #207, .T. ) ;
#206 = VERTEX_POINT ( 'NONE', #329 ) ;
#207 = LINE ( 'NONE', #82, #163 ) ;
#208 = VERTEX_POINT ( 'NONE', #58 ) ;
#209 = FACE_BOUND ( 'NONE', #99, .T. ) ;
#210 = AXIS2_PLACEMENT_3D ( 'NONE', #348, #200, #321 ) ;
#211 = DIRECTION ( 'NONE',  ( 1.000000000000000000, -0.000000000000000000, -0.000000000000000000 ) ) ;
#212 = EDGE_CURVE ( 'NONE', #377, #24, #261, .T. ) ;
#213 = DIRECTION ( 'NONE',  ( 1.000000000000000000, 0.000000000000000000, 0.000000000000000000 ) ) ;
#214 = CARTESIAN_POINT ( 'NONE',  ( -24.50000000000000000, 3.061616997868368350E-16, 2.499999999999988454 ) ) ;
#215 = DIRECTION ( 'NONE',  ( -1.000000000000000000, 0.000000000000000000, 0.000000000000000000 ) ) ;
#216 = AXIS2_PLACEMENT_3D ( 'NONE', #108, #314, #199 ) ;
#217 = FACE_OUTER_BOUND ( 'NONE', #172, .T. ) ;
#218 = DIRECTION ( 'NONE',  ( 0.000000000000000000, 0.000000000000000000, -1.000000000000000000 ) ) ;
#219 = DIRECTION ( 'NONE',  ( 0.000000000000000000, 0.000000000000000000, 1.000000000000000000 ) ) ;
#220 = FACE_OUTER_BOUND ( 'NONE', #382, .T. ) ;
#221 = FILL_AREA_STYLE ('',( #97 ) ) ;
#222 = CIRCLE ( 'NONE', #268, 3.000000000000000444 ) ;
#223 = VERTEX_POINT ( 'NONE', #291 ) ;
#224 = EDGE_LOOP ( 'NONE', ( #107, #14, #287, #145 ) ) ;
#225 = ORIENTED_EDGE ( 'NONE', *, *, #90, .F. ) ;
#226 = CIRCLE ( 'NONE', #72, 5.000000000000000000 ) ;
#227 = SURFACE_STYLE_USAGE ( .BOTH. , #68 ) ;
#228 = EDGE_CURVE ( 'NONE', #43, #69, #296, .T. ) ;
#229 = VERTEX_POINT ( 'NONE', #204 ) ;
#230 = DIRECTION ( 'NONE',  ( -0.7071067811865441310, 8.659560562354974766E-17, -0.7071067811865507924 ) ) ;
#231 = DIRECTION ( 'NONE',  ( 1.000000000000000000, 0.000000000000000000, 0.000000000000000000 ) ) ;
#232 = ADVANCED_FACE ( 'NONE', ( #51 ), #117, .T. ) ;
#233 = ORIENTED_EDGE ( 'NONE', *, *, #21, .F. ) ;
#234 = CYLINDRICAL_SURFACE ( 'NONE', #370, 3.000000000000000444 ) ;
#235 = DIRECTION ( 'NONE',  ( 1.000000000000000000, 0.000000000000000000, 0.000000000000000000 ) ) ;
#236 = ADVANCED_FACE ( 'NONE', ( #266 ), #234, .T. ) ;
#237 = DIRECTION ( 'NONE',  ( 1.000000000000000000, 0.000000000000000000, 0.000000000000000000 ) ) ;
#238 = CYLINDRICAL_SURFACE ( 'NONE', #275, 5.000000000000000000 ) ;
#239 = CARTESIAN_POINT ( 'NONE',  ( 1.000000000000000000, 0.000000000000000000, 0.000000000000000000 ) ) ;
#240 = CONICAL_SURFACE ( 'NONE', #216, 2.499999999999988454, 0.7853981633974530530 ) ;
#241 = FACE_OUTER_BOUND ( 'NONE', #224, .T. ) ;
#242 = DIRECTION ( 'NONE',  ( 0.000000000000000000, 0.000000000000000000, -1.000000000000000000 ) ) ;
#243 = DIRECTION ( 'NONE',  ( 0.000000000000000000, 0.000000000000000000, 1.000000000000000000 ) ) ;
#244 = DIRECTION ( 'NONE',  ( -1.000000000000000000, 0.000000000000000000, 0.000000000000000000 ) ) ;
#245 = FACE_OUTER_BOUND ( 'NONE', #294, .T. ) ;
#246 = DIRECTION ( 'NONE',  ( 0.7071067811865441310, 0.000000000000000000, -0.7071067811865507924 ) ) ;
#247 = ADVANCED_FACE ( 'NONE', ( #113 ), #180, .T. ) ;
#248 = EDGE_LOOP ( 'NONE', ( #143, #341, #355, #259 ) ) ;
#249 = DIRECTION ( 'NONE',  ( 0.000000000000000000, 0.000000000000000000, 1.000000000000000000 ) ) ;
#250 = PRODUCT_DEFINITION_SHAPE ( 'NONE', 'NONE',  #52 ) ;
#251 = EDGE_CURVE ( 'NONE', #24, #229, #322, .T. ) ;
#252 = ORIENTED_EDGE ( 'NONE', *, *, #77, .T. ) ;
#253 = CIRCLE ( 'NONE', #368, 2.499999999999988454 ) ;
#254 = AXIS2_PLACEMENT_3D ( 'NONE', #271, #127, #337 ) ;
#255 =( NAMED_UNIT ( * ) SI_UNIT ( $, .STERADIAN. ) SOLID_ANGLE_UNIT ( ) );
#256 = VERTEX_POINT ( 'NONE', #177 ) ;
#257 = CARTESIAN_POINT ( 'NONE',  ( 25.50000000000000355, 0.000000000000000000, 3.000000000000000444 ) ) ;
#258 = EDGE_CURVE ( 'NONE', #24, #377, #253, .T. ) ;
#259 = ORIENTED_EDGE ( 'NONE', *, *, #228, .T. ) ;
#260 = CARTESIAN_POINT ( 'NONE',  ( 25.50000000000000355, 0.000000000000000000, 0.000000000000000000 ) ) ;
#261 = CIRCLE ( 'NONE', #120, 2.499999999999988454 ) ;
#262 = DIRECTION ( 'NONE',  ( -1.000000000000000000, 0.000000000000000000, 0.000000000000000000 ) ) ;
#263 = ORIENTED_EDGE ( 'NONE', *, *, #258, .F. ) ;
#264 = DIRECTION ( 'NONE',  ( -1.000000000000000000, 0.000000000000000000, 0.000000000000000000 ) ) ;
#265 = PRODUCT_RELATED_PRODUCT_CATEGORY ( 'part', '', ( #185 ) ) ;
#266 = FACE_OUTER_BOUND ( 'NONE', #73, .T. ) ;
#267 = CIRCLE ( 'NONE', #153, 3.000000000000000444 ) ;
#268 = AXIS2_PLACEMENT_3D ( 'NONE', #309, #244, #102 ) ;
#269 = CARTESIAN_POINT ( 'NONE',  ( 25.50000000000000355, 0.000000000000000000, 0.000000000000000000 ) ) ;
#270 = EDGE_CURVE ( 'NONE', #283, #352, #202, .T. ) ;
#271 = CARTESIAN_POINT ( 'NONE',  ( -24.50000000000000000, 0.000000000000000000, 0.000000000000000000 ) ) ;
#272 = ORIENTED_EDGE ( 'NONE', *, *, #166, .F. ) ;
#273 = DIRECTION ( 'NONE',  ( 0.000000000000000000, 0.000000000000000000, -1.000000000000000000 ) ) ;
#274 = ORIENTED_EDGE ( 'NONE', *, *, #212, .T. ) ;
#275 = AXIS2_PLACEMENT_3D ( 'NONE', #333, #62, #29 ) ;
#276 = CARTESIAN_POINT ( 'NONE',  ( 0.000000000000000000, 0.000000000000000000, 0.000000000000000000 ) ) ;
#277 = AXIS2_PLACEMENT_3D ( 'NONE', #152, #323, #53 ) ;
#278 = APPLICATION_CONTEXT ( 'automotive_design' ) ;
#279 = DIRECTION ( 'NONE',  ( 1.000000000000000000, 0.000000000000000000, 0.000000000000000000 ) ) ;
#280 = DIRECTION ( 'NONE',  ( -1.000000000000000000, -0.000000000000000000, -0.000000000000000000 ) ) ;
#281 = DIRECTION ( 'NONE',  ( 0.000000000000000000, 0.000000000000000000, -1.000000000000000000 ) ) ;
#282 = AXIS2_PLACEMENT_3D ( 'NONE', #363, #201, #161 ) ;
#283 = VERTEX_POINT ( 'NONE', #1 ) ;
#284 = EDGE_CURVE ( 'NONE', #223, #45, #328, .T. ) ;
#285 = ORIENTED_EDGE ( 'NONE', *, *, #336, .F. ) ;
#286 =( NAMED_UNIT ( * ) PLANE_ANGLE_UNIT ( ) SI_UNIT ( $, .RADIAN. ) );
#287 = ORIENTED_EDGE ( 'NONE', *, *, #85, .T. ) ;
#288 = VECTOR ( 'NONE', #353, 1000.000000000000000 ) ;
#289 = FACE_BOUND ( 'NONE', #42, .T. ) ;
#290 = ORIENTED_EDGE ( 'NONE', *, *, #212, .F. ) ;
#291 = CARTESIAN_POINT ( 'NONE',  ( -23.99999999999999289, 0.000000000000000000, -3.000000000000000444 ) ) ;
#292 = ORIENTED_EDGE ( 'NONE', *, *, #316, .F. ) ;
#293 = DIRECTION ( 'NONE',  ( 1.000000000000000000, -0.000000000000000000, -0.000000000000000000 ) ) ;
#294 = EDGE_LOOP ( 'NONE', ( #290, #110, #198, #66 ) ) ;
#295 = CARTESIAN_POINT ( 'NONE',  ( -24.50000000000000000, 0.000000000000000000, 0.000000000000000000 ) ) ;
#296 = CIRCLE ( 'NONE', #340, 5.000000000000000000 ) ;
#297 = ORIENTED_EDGE ( 'NONE', *, *, #77, .F. ) ;
#298 = ADVANCED_FACE ( 'NONE', ( #220 ), #124, .T. ) ;
#299 = DIRECTION ( 'NONE',  ( 0.000000000000000000, 0.000000000000000000, -1.000000000000000000 ) ) ;
#300 = CARTESIAN_POINT ( 'NONE',  ( 0.000000000000000000, 0.000000000000000000, 0.000000000000000000 ) ) ;
#301 = DIRECTION ( 'NONE',  ( -1.000000000000000000, 0.000000000000000000, 0.000000000000000000 ) ) ;
#302 = AXIS2_PLACEMENT_3D ( 'NONE', #2, #279, #331 ) ;
#303 = ADVANCED_FACE ( 'NONE', ( #245 ), #12, .T. ) ;
#304 = CARTESIAN_POINT ( 'NONE',  ( -24.50000000000000000, 0.000000000000000000, 0.000000000000000000 ) ) ;
#305 = VERTEX_POINT ( 'NONE', #7 ) ;
#306 = DIRECTION ( 'NONE',  ( 0.000000000000000000, 0.000000000000000000, -1.000000000000000000 ) ) ;
#307 = ORIENTED_EDGE ( 'NONE', *, *, #270, .T. ) ;
#308 =( NAMED_UNIT ( * ) SI_UNIT ( $, .STERADIAN. ) SOLID_ANGLE_UNIT ( ) );
#309 = CARTESIAN_POINT ( 'NONE',  ( 24.99999999999999289, 0.000000000000000000, 0.000000000000000000 ) ) ;
#310 = CIRCLE ( 'NONE', #210, 3.000000000000000444 ) ;
#311 = DIRECTION ( 'NONE',  ( 0.000000000000000000, 0.000000000000000000, -1.000000000000000000 ) ) ;
#312 = ORIENTED_EDGE ( 'NONE', *, *, #148, .T. ) ;
#313 = EDGE_CURVE ( 'NONE', #208, #256, #126, .T. ) ;
#314 = DIRECTION ( 'NONE',  ( -1.000000000000000000, 0.000000000000000000, 0.000000000000000000 ) ) ;
#315 = CARTESIAN_POINT ( 'NONE',  ( 0.000000000000000000, 0.000000000000000000, 0.000000000000000000 ) ) ;
#316 = EDGE_CURVE ( 'NONE', #206, #345, #371, .T. ) ;
#317 = AXIS2_PLACEMENT_3D ( 'NONE', #361, #194, #373 ) ;
#318 = DIRECTION ( 'NONE',  ( 1.000000000000000000, 0.000000000000000000, 0.000000000000000000 ) ) ;
#319 = VERTEX_POINT ( 'NONE', #65 ) ;
#320 = ORIENTED_EDGE ( 'NONE', *, *, #175, .T. ) ;
#321 = DIRECTION ( 'NONE',  ( 0.000000000000000000, 0.000000000000000000, -1.000000000000000000 ) ) ;
#322 = LINE ( 'NONE', #357, #155 ) ;
#323 = DIRECTION ( 'NONE',  ( -1.000000000000000000, -0.000000000000000000, -0.000000000000000000 ) ) ;
#324 = ORIENTED_EDGE ( 'NONE', *, *, #343, .T. ) ;
#325 = DIRECTION ( 'NONE',  ( 0.000000000000000000, 0.000000000000000000, -1.000000000000000000 ) ) ;
#326 = ADVANCED_FACE ( 'NONE', ( #131 ), #87, .T. ) ;
#327 = CARTESIAN_POINT ( 'NONE',  ( 1.000000000000000000, 0.000000000000000000, 0.000000000000000000 ) ) ;
#328 = CIRCLE ( 'NONE', #366, 3.000000000000000444 ) ;
#329 = CARTESIAN_POINT ( 'NONE',  ( -24.50000000000000000, 3.367778697655214109E-16, 2.499999999999988454 ) ) ;
#330 = DIRECTION ( 'NONE',  ( 0.000000000000000000, 0.000000000000000000, -1.000000000000000000 ) ) ;
#331 = DIRECTION ( 'NONE',  ( 0.000000000000000000, 0.000000000000000000, -1.000000000000000000 ) ) ;
#332 = AXIS2_PLACEMENT_3D ( 'NONE', #276, #6, #242 ) ;
#333 = CARTESIAN_POINT ( 'NONE',  ( 1.000000000000000000, 0.000000000000000000, 0.000000000000000000 ) ) ;
#334 = DIRECTION ( 'NONE',  ( -1.000000000000000000, -0.000000000000000000, -0.000000000000000000 ) ) ;
#335 = CARTESIAN_POINT ( 'NONE',  ( 0.000000000000000000, 6.123233995736766282E-16, -5.000000000000000000 ) ) ;
#336 = EDGE_CURVE ( 'NONE', #319, #352, #59, .T. ) ;
#337 = DIRECTION ( 'NONE',  ( 0.000000000000000000, 0.000000000000000000, 1.000000000000000000 ) ) ;
#338 = ORIENTED_EDGE ( 'NONE', *, *, #166, .T. ) ;
#339 = SURFACE_STYLE_FILL_AREA ( #221 ) ;
#340 = AXIS2_PLACEMENT_3D ( 'NONE', #300, #384, #325 ) ;
#341 = ORIENTED_EDGE ( 'NONE', *, *, #175, .F. ) ;
#342 = ORIENTED_EDGE ( 'NONE', *, *, #4, .T. ) ;
#343 = EDGE_CURVE ( 'NONE', #352, #283, #267, .T. ) ;
#344 = VECTOR ( 'NONE', #334, 1000.000000000000000 ) ;
#345 = VERTEX_POINT ( 'NONE', #63 ) ;
#346 = PRESENTATION_STYLE_ASSIGNMENT (( #227 ) ) ;
#347 = ORIENTED_EDGE ( 'NONE', *, *, #61, .F. ) ;
#348 = CARTESIAN_POINT ( 'NONE',  ( 0.000000000000000000, 0.000000000000000000, 0.000000000000000000 ) ) ;
#349 = PLANE ( 'NONE',  #282 ) ;
#350 = VECTOR ( 'NONE', #64, 1000.000000000000000 ) ;
#351 = DIRECTION ( 'NONE',  ( 0.000000000000000000, 0.000000000000000000, -1.000000000000000000 ) ) ;
#352 = VERTEX_POINT ( 'NONE', #158 ) ;
#353 = DIRECTION ( 'NONE',  ( 1.000000000000000000, -0.000000000000000000, -0.000000000000000000 ) ) ;
#354 = ADVANCED_FACE ( 'NONE', ( #217 ), #238, .T. ) ;
#355 = ORIENTED_EDGE ( 'NONE', *, *, #90, .T. ) ;
#356 = DIRECTION ( 'NONE',  ( 0.000000000000000000, 0.000000000000000000, -1.000000000000000000 ) ) ;
#357 = CARTESIAN_POINT ( 'NONE',  ( 25.50000000000000355, 0.000000000000000000, 2.499999999999988454 ) ) ;
#358 = DIRECTION ( 'NONE',  ( 1.000000000000000000, 0.000000000000000000, 0.000000000000000000 ) ) ;
#359 = DIRECTION ( 'NONE',  ( 1.000000000000000000, 0.000000000000000000, 0.000000000000000000 ) ) ;
#360 = VECTOR ( 'NONE', #35, 1000.000000000000000 ) ;
#361 = CARTESIAN_POINT ( 'NONE',  ( 25.50000000000000355, 0.000000000000000000, 0.000000000000000000 ) ) ;
#362 = CARTESIAN_POINT ( 'NONE',  ( -24.50000000000000000, 0.000000000000000000, 0.000000000000000000 ) ) ;
#363 = CARTESIAN_POINT ( 'NONE',  ( 0.000000000000000000, 0.000000000000000000, 0.000000000000000000 ) ) ;
#364 = DIRECTION ( 'NONE',  ( 0.000000000000000000, 0.000000000000000000, 1.000000000000000000 ) ) ;
#365 = ORIENTED_EDGE ( 'NONE', *, *, #284, .T. ) ;
#366 = AXIS2_PLACEMENT_3D ( 'NONE', #186, #93, #364 ) ;
#367 = CYLINDRICAL_SURFACE ( 'NONE', #317, 3.000000000000000444 ) ;
#368 = AXIS2_PLACEMENT_3D ( 'NONE', #20, #89, #330 ) ;
#369 = ADVANCED_FACE ( 'NONE', ( #241 ), #181, .T. ) ;
#370 = AXIS2_PLACEMENT_3D ( 'NONE', #121, #293, #356 ) ;
#371 = CIRCLE ( 'NONE', #84, 2.499999999999988454 ) ;
#372 = EDGE_LOOP ( 'NONE', ( #79, #297 ) ) ;
#373 = DIRECTION ( 'NONE',  ( 0.000000000000000000, 0.000000000000000000, 1.000000000000000000 ) ) ;
#374 = UNCERTAINTY_MEASURE_WITH_UNIT (LENGTH_MEASURE( 1.000000000000000082E-05 ), #164, 'distance_accuracy_value', 'NONE');
#375 = FACE_OUTER_BOUND ( 'NONE', #372, .T. ) ;
#376 = DIRECTION ( 'NONE',  ( 1.000000000000000000, 0.000000000000000000, 0.000000000000000000 ) ) ;
#377 = VERTEX_POINT ( 'NONE', #156 ) ;
#378 = AXIS2_PLACEMENT_3D ( 'NONE', #144, #262, #178 ) ;
#379 = ADVANCED_FACE ( 'NONE', ( #192 ), #36, .T. ) ;
#380 = DIRECTION ( 'NONE',  ( 0.000000000000000000, 0.000000000000000000, -1.000000000000000000 ) ) ;
#381 = CARTESIAN_POINT ( 'NONE',  ( 1.000000000000000000, 0.000000000000000000, 0.000000000000000000 ) ) ;
#382 = EDGE_LOOP ( 'NONE', ( #101, #75 ) ) ;
#383 = DIRECTION ( 'NONE',  ( 0.000000000000000000, 0.000000000000000000, -1.000000000000000000 ) ) ;
#384 = DIRECTION ( 'NONE',  ( 1.000000000000000000, 0.000000000000000000, 0.000000000000000000 ) ) ;
#385 = AXIS2_PLACEMENT_3D ( 'NONE', #327, #184, #83 ) ;
ENDSEC;
END-ISO-10303-21;
